Oops, an error
Loading. Please wait.

Living After Midnight Tab

ver4
ver4
More versions @911Tabs.com
11,813 views 9 this week
no commentswrite comment
1 2 3 4 5
excellent!
x 5
Autoscroll
+/-
esc
set tempo
stop
Contributor
Hey! There's an official Ultimate Guitar app which is ideal
for learning songs when you're away from computer. Get the app
WARNING: You are trying to view
                                    content from Ultimate-Guitar.com
                                    in an unauthorized application,
                                    which is prohibited.

                                    Please use an official Ultimate
                                    Guitar Tabs application for iPhone,
                                    iPad or Android to access legitimate
                                    chords, guitar, bass, and drum tabs
                                    from Ultimate-Guitar.com database.

                                    Type "ultimate guitar tabs" in Apple
                                    App Store's or Android Market's
                                    search to find the application.
Judas Priest-Living After Midnight  
British Steel (1980) 
Transcribed by: playinbass1432
Email: playinbass1432@hotmail.com

Standard Tuning (Both guitars) 
Left Channel-Top 
Right Channel-Bottom 

Sorry, I don't know which guitar is KK's and which one is 
Glen's. But judging by the little palm mutes coming out of 
the left, I'm assuming that's KK, as he plays rhythm on this
track. Not completely sure, though. 

Intro: (After 4 bars of drums) 

   E5        D5  PM  A5       B5       E5       D5   PM  A5                  
E|-----------------|-----------------|-----------------|-----------------|
B|-----------------|-----------------|-----------------|-----------------| 
G|-9---9-----7-----|-2---2-----------|-9---9-----7-----|-2---2-----------|
D|-9---9-----7-----|-2---2-----9-----|-9---9-----7-----|-2---2-----9-----|
A|-7---7-----5---0-|-0---0-----9-----|-7---7-----5---0-|-0---0-----9---9-|
E|-----------------|-----------7---7-|-----------------|-----------7---7-|
 | 
E|-----------------|-----------------|-----------------|-----------------|
B|-----------------|-----------------|-----------------|-----------------|
G|-9---9-----7-----|-2---2-----------|-9---9-----7-----|-2---2-----------|
D|-9---9-----7-----|-2---2-----9-----|-9---9-----7-----|-2---2-----9-----|
A|-7---7-----5-----|-0---0-----9-----|-7---7-----5-----|-0---0-----9-----|
E|-----------------|-----------7-----|-----------------|-----------7-----|

   E5        D5  PM  A5       B5                      
E|-----------------|-----------------|-----------------|-----------------|
B|-----------------|-----------------|-----------------|-----------------|
G|-9---9-----7-----|-2---2-----------|-----------------|-----------------|
D|-9---9-----7-----|-2---2-----9---9-|-----------9---9-|-----------9-----|
A|-7---7-----5---0-|-0---0-----9---9-|-----------9---9-|-----------9-----|
E|-----------------|-----------7---7-|-----------7---7-|-----------7-----|
 | 
E|-----------------|-----------------|-----------------|-----------------|
B|-----------------|-----------------|-----------------|-----------------|
G|-9---9-----7-----|-2---2-----------|-----------------|-----------------|
D|-9---9-----7-----|-2---2-----9---9-|-----9-----9---9-|-----9-----9-----|
A|-7---7-----5-----|-0---0-----9---9-|-----9-----9---9-|-----9-----9---9-|
E|-----------------|-----------7---7-|-----7-----7---7-|-----7-----7---7-|

Pre Verse 1:

   E5        D5  PM  A5       B5       E5       D5   PM  A5        B5                  
E|-----------------|-----------------|-----------------|-----------------|
B|-----------------|-----------------|-----------------|-----------------| 
G|-9---9-----7-----|-2---2-----------|-9---9-----7-----|-2---2-----------|
D|-9---9-----7-----|-2---2-----9-----|-9---9-----7-----|-2---2-----9-----|
A|-7---7-----5---0-|-0---0-----9-----|-7---7-----5---0-|-0---0-----9---9-|
E|-----------------|-----------7---7-|-----------------|-----------7---7-|
 | 
E|-----------------|-----------------|-----------------|-----------------|
B|-----------------|-----------------|-----------------|-----------------|
G|-9---9-----7-----|-2---2-----------|-9---9-----7-----|-2---2-----------|
D|-9---9-----7-----|-2---2-----9-----|-9---9-----7-----|-2---2-----9-----|
A|-7---7-----5-----|-0---0-----9-----|-7---7-----5-----|-0---0-----9-----|
E|-----------------|-----------7-----|-----------------|-----------7-----|

   E5        D5  PM  A5       B5                      
E|-----------------|-----------------|-----------------|-----------------|
B|-----------------|-----------------|-----------------|-----------------|
G|-9---9-----7-----|-2---2-----------|-----------------|---------------9-|
D|-9---9-----7-----|-2---2-----9---9-|-----------9---9-|-----9-----9---9-|
A|-7---7-----5---0-|-0---0-----9---9-|-----------9---9-|-----9-----9---7-|
E|-----------------|-----------7---7-|-----------7---7-|-----7-----7-----|
 | 
E|-----------------|-----------------|-----------------|-----------------|
B|-----------------|-----------------|-----------------|-----------------|
G|-9---9-----7-----|-2---2-----------|-----------------|-----------------|
D|-9---9-----7-----|-2---2-----9---9-|-----9-----9---9-|-----9-----9---9-|
A|-7---7-----5-----|-0---0-----9---9-|-----9-----9---9-|-----9-----9---7-|
E|-----------------|-----------7---7-|-----7-----7---7-|-----7-----7---0-|

Verse 1:

     E5                                PM-----------|    PM-----------|   
E|-----------------|-----------------|-----------------|-----------------|
B|-----------------|-----------------|-----------------|-----------------|
G|---9---9---9---9-|---9---9---9-----|-----------------|---------------9-|
D|---9---9---9---9-|---9---9---9-----|-----------------|---------------9-|
A|---7---7---7---7-|---7---7---7-----|---2-2-2-2-2-2---|---2-2-2-2-2-2-7-|
E|-----------------|---------------3-|---0-0-0-0-0-0-3-|---0-0-0-0-0-0---|
|
|                                                                      E5
E|-----------------|-----------------|-----------------|-----------------|
B|-----------------|-----------------|-----------------|-----------------|
G|-----------------|-----------------|-----------------|-----------------|
D|-----------------|-----------------|-----------------|---------------9-|
A|-----------------|-----------------|-----------------|---------------7-|
E|---0---0---0---0-|---0---0---0---3-|---0-0-0-0-0-0-3-|---0-0-0-0-0-0-0-|

     E5                                PM-----------|    PM-----------|G5   
E|-----------------|-----------------|-----------------|-----------------|
B|-----------------|-----------------|-----------------|-----------------|
G|---9---9---9---9-|---9---9---9-----|-----------------|-----------------|
D|---9---9---9---9-|---9---9---9-----|-----------------|---------------5-|
A|---7---7---7---7-|---7---7---7-----|---2-2-2-2-2-2---|---2-2-2-2-2-2-5-|
E|-----------------|---------------3-|---0-0-0-0-0-0-3-|---0-0-0-0-0-0-3-|
|
|                                                                      G5
E|-----------------|-----------------|-----------------|-----------------|
B|-----------------|-----------------|-----------------|-----------------|
G|-----------------|-----------------|-----------------|-----------------|
D|-----------------|-----------------|-----------------|---------------5-|
A|-----------------|-----------------|-----------------|---------------5-|
E|---0---0---0---0-|---0---0---0---3-|---0-0-0-0-0-0-3-|---0-0-0-0-0-0-3-|

                                   F#5               B5                    
E|-----------------|-----------------|-----------------|-----------------|
B|-----------------|-----------------|-----------------|-----------------|
G|-----------------|-----------------|---------------4-|-----------------|
D|-----------------|---------------4-|---------------4-|-----------7---x-|
A|-----------------|---------------4-|---------------2-|-----------5---x-|
E|-----------------|---------------2-|-----------------|-----------------|
 |
 |                                 F#5               B5         
E|-----------------|-----------------|-----------------|-----------------|
B|-----------------|-----------------|-----------------|-----------------|
G|-----------------|-----------------|---------------4-|-----------------|
D|-----------------|---------------4-|---------------4-|-----------7-----|
A|-----------------|---------------4-|---------------2-|-----------5-----|
E|-----------------|---------------2-|-----------------|-----------------|

Chorus 1: 


 E5        D5  PM  A5       B5       E5       D5   PM  A5        B5                  
E|-----------------|-----------------|-----------------|-----------------|
B|-----------------|-----------------|-----------------|-----------------| 
G|-9---9-----7-----|-2---2-----------|-9---9-----7-----|-2---2-----------|
D|-9---9-----7-----|-2---2-----9-----|-9---9-----7-----|-2---2-----9-----|
A|-7---7-----5---0-|-0---0-----9-----|-7---7-----5---0-|-0---0-----9---9-|
E|-----------------|-----------7---7-|-----------------|-----------7---7-|
 | 
E|-----------------|-----------------|-----------------|-----------------|
B|-----------------|-----------------|-----------------|-----------------|
G|-9---9-----7-----|-2---2-----------|-9---9-----7-----|-2---2-----------|
D|-9---9-----7-----|-2---2-----9-----|-9---9-----7-----|-2---2-----9-----|
A|-7---7-----5-----|-0---0-----9-----|-7---7-----5-----|-0---0-----9-----|
E|-----------------|-----------7-----|-----------------|-----------7-----|

   E5        D5  PM  A5       B5                      
E|-----------------|-----------------|-----------------|-----------------|
B|-----------------|-----------------|-----------------|-----------------|
G|-9---9-----7-----|-2---2-----------|-----------------|---------------9-|
D|-9---9-----7-----|-2---2-----9---9-|-----9-----9---9-|-----9-----9---9-|
A|-7---7-----5---0-|-0---0-----9---9-|-----9-----9---9-|-----9-----9---7-|
E|-----------------|-----------7---7-|-----7-----7---7-|-----7-----7-----|
 | 
E|-----------------|-----------------|-----------------|-----------------|
B|-----------------|-----------------|-----------------|-----------------|
G|-9---9-----7-----|-2---2-----------|-----------------|-----------------|
D|-9---9-----7-----|-2---2-----9---9-|-----9-----9---9-|-----9-----9-----|
A|-7---7-----5-----|-0---0-----9---9-|-----9-----9---9-|-----9-----9--/7-|
E|-----------------|-----------7---7-|-----7-----7---7-|-----7-----7---0-| 

Verse 2:

     E5                                PM-----------|    PM-----------|   
E|-----------------|-----------------|-----------------|-----------------|
B|-----------------|-----------------|-----------------|-----------------|
G|---9---9---9---9-|---9---9---9-----|-----------------|---------------9-|
D|---9---9---9---9-|---9---9---9-----|-----------------|---------------9-|
A|---7---7---7---7-|---7---7---7-----|---2-2-2-2-2-2---|---2-2-2-2-2-2-7-|
E|-----------------|---------------3-|---0-0-0-0-0-0-3-|---0-0-0-0-0-0---|
|
|                                                                      E5
E|-----------------|-----------------|-----------------|-----------------|
B|-----------------|-----------------|-----------------|-----------------|
G|-----------------|-----------------|-----------------|-----------------|
D|-----------------|-----------------|-----------------|---------------9-|
A|-----------------|-----------------|-----------------|---------------7-|
E|---0---0---0---0-|---0---0---0---3-|---0-0-0-0-0-0-3-|---0-0-0-0-0-0-0-|

     E5                                PM-----------|    PM-----------|G5   
E|-----------------|-----------------|-----------------|-----------------|
B|-----------------|-----------------|-----------------|-----------------|
G|---9---9---9---9-|---9---9---9-----|-----------------|-----------------|
D|---9---9---9---9-|---9---9---9-----|-----------------|---------------5-|
A|---7---7---7---7-|---7---7---7-----|---2-2-2-2-2-2---|---2-2-2-2-2-2-5-|
E|-----------------|---------------3-|---0-0-0-0-0-0-3-|---0-0-0-0-0-0-3-|
|
|                                                                      G5
E|-----------------|-----------------|-----------------|-----------------|
B|-----------------|-----------------|-----------------|-----------------|
G|-----------------|-----------------|-----------------|-----------------|
D|-----------------|-----------------|-----------------|---------------5-|
A|-----------------|-----------------|-----------------|---------------5-|
E|---0---0---0---0-|---0---0---0---3-|---0-0-0-0-0-0-3-|---0-0-0-0-0-0-3-|

                                   F#5               B5                    
E|-----------------|-----------------|-----------------|-----------------|
B|-----------------|-----------------|-----------------|-----------------|
G|-----------------|-----------------|---------------4-|-----------------|
D|-----------------|---------------4-|---------------4-|-----------7-----|
A|-----------------|---------------4-|---------------2-|-----------5---5-|
E|-----------------|---------------2-|-----------------|-----------------|
 |
 |                                 F#5               B5         
E|-----------------|-----------------|-----------------|-----------------|
B|-----------------|-----------------|-----------------|-----------------|
G|-----------------|-----------------|---------------4-|-----------------|
D|-----------------|---------------4-|---------------4-|-----------7-----|
A|-----------------|---------------4-|---------------2-|-----------5-----|
E|-----------------|---------------2-|-----------------|-----------------|

Chorus 2: 

   E5        D5  PM  A5       B5       E5       D5   PM  A5        B5                  
E|-----------------|-----------------|-----------------|-----------------|
B|-----------------|-----------------|-----------------|-----------------| 
G|-9---9-----7-----|-2---2-----------|-9---9-----7-----|-2---2-----------|
D|-9---9-----7-----|-2---2-----9-----|-9---9-----7-----|-2---2-----9-----|
A|-7---7-----5---0-|-0---0-----9-----|-7---7-----5---0-|-0---0-----9---9-|
E|-----------------|-----------7---7-|-----------------|-----------7---7-|
 | 
E|-----------------|-----------------|-----------------|-----------------|
B|-----------------|-----------------|-----------------|-----------------|
G|-9---9-----7-----|-2---2-----------|-9---9-----7-----|-2---2-----------|
D|-9---9-----7-----|-2---2-----9-----|-9---9-----7-----|-2---2-----9-----|
A|-7---7-----5-----|-0---0-----9-----|-7---7-----5-----|-0---0-----9-----|
E|-----------------|-----------7-----|-----------------|-----------7-----|

   E5        D5  PM  A5       B5                                       A             
E|-----------------|-----------------|-----------------|-----------------|
B|-----------------|-----------------|-----------------|---------------2-|
G|-9---9-----7-----|-2---2-----------|-----------------|---------------2-|
D|-9---9-----7-----|-2---2-----9---9-|-----9-----9---9-|-----9-----9---2-|
A|-7---7-----5---0-|-0---0-----9---9-|-----9-----9---9-|-----9-----9-----|
E|-----------------|-----------7---7-|-----7-----7---7-|-----7-----7-----|
 | 
E|-----------------|-----------------|-----------------|-----------------|
B|-----------------|-----------------|-----------------|---------------2-|
G|-9---9-----7-----|-2---2-----------|-----------------|---------------2-|
D|-9---9-----7-----|-2---2-----9---9-|-----9-----9---9-|-----9-----9---2-|
A|-7---7-----5-----|-0---0-----9---9-|-----9-----9---9-|-----9-----9-----|
E|-----------------|-----------7---7-|-----7-----7---7-|-----7-----7-----| 

Bridge: 
 
       D    A PM--|                E5  PM-----------|    ------------| A
E|-----------------|-----------------|-----------------|-----------------|
B|-----3---3-2-----|-3---3---3-2-----|-----------------|---------------2-|
G|-----2---2-2-----|-2---2---2-2-----|-----------------|---------------2-|
D|-----4---4-2-----|-4---4---4-2-----|-----------------|---------------2-|
A|-------------0-0-|---------------2-|---2-2-2-2-2-2---|---2-2-2-2-2-2---|
E|-----------------|---------------0-|---0-0-0-0-0-0-3-|---0-0-0-0-0-0---|
 |
E|-----------------|-----------------|-----------------|-----------------|
B|-----3---3-2-----|-3---3---3-2-----|-----------------|---------------2-|
G|-----2---2-2-----|-2---2---2-2-----|-----------------|---------------2-|
D|-----4---4-2-----|-4---4---4-2-----|-----------------|---------------2-|
A|-----------------|---------------2-|-----------------|-----------------|
E|-----------------|---------------0-|---0-0-0-0-0-0-3-|---0-0-0-0-0-0---| 

 
       D    A PM--|                E5  PM-----------|    ------------| A
E|-----------------|-----------------|-----------------|-----------------|
B|-----3---3-2-----|-3---3---3-2-----|-----------------|---------------2-|
G|-----2---2-2-----|-2---2---2-2-----|-----------------|---------------2-|
D|-----4---4-2-----|-4---4---4-2-----|-----------------|---------------2-|
A|-------------0-0-|---------------2-|---2-2-2-2-2-2---|---2-2-2-2-2-2---|
E|-----------------|---------------0-|---0-0-0-0-0-0-3-|---0-0-0-0-0-0---|
 |
E|-----------------|-----------------|-----------------|-----------------|
B|-----3---3-2-----|-3---3---3-2-----|-----------------|---------------2-|
G|-----2---2-2-----|-2---2---2-2-----|-----------------|---------------2-|
D|-----4---4-2-----|-4---4---4-2-----|-----------------|---------------2-|
A|-----------------|---------------2-|-----------------|-----------------|
E|-----------------|---------------0-|---0-0-0-0-0-0-3-|---0-0-0-0-0-0---| 


       D    A PM--|                E5  PM-----------|    ------------| A
E|-----------------|-----------------|-----------------|-----------------|
B|-----3---3-2-----|-3---3---3-2-----|-----------------|---------------2-|
G|-----2---2-2-----|-2---2---2-2-----|-----------------|---------------2-|
D|-----4---4-2-----|-4---4---4-2-----|-----------------|---------------2-|
A|-------------0-0-|---------------2-|---2-2-2-2-2-2---|---2-2-2-2-2-2---|
E|-----------------|---------------0-|---0-0-0-0-0-0-3-|---0-0-0-0-0-0---|
 |
E|-----------------|-----------------|-----------------|-----------------|
B|-----3---3-2-----|-3---3---3-2-----|-----------------|---------------2-|
G|-----2---2-2-----|-2---2---2-2-----|-----------------|---------------2-|
D|-----4---4-2-----|-4---4---4-2-----|-----------------|---------------2-|
A|-----------------|-----------------|-----------------|-----------------|
E|-----------------|---------------0-|---0-0-0-0-0-0-3-|---0-0-0-0-0-0---| 
 
       D    A PM--|                B5                D5        B5  
E|-----------------|-----------------|-----------------|-----------------|
B|-----3---3-2-----|-3---3---3-2-----|-----------------|-----------------|
G|-----2---2-2-----|-2---2---2-2-----|---------------7-|-----------------|
D|-----4---4-2-----|-4---4---4-2---9-|---------------7-|-------9---------|
A|-------------0-0-|---------------9-|---------------5-|-------9---------|
E|-----------------|---------------7-|-----------------|-------7---------|
 |
E|-----------------|-----------------|-----------------|-----------------|
B|-----3---3-2-----|-3---3---3-2-----|---------------3-|-----------------|
G|-----2---2-2-----|-2---2---2-2---4-|---------------2-|-----------------|
D|-----4---4-2-----|-4---4---4-2---4-|---------------0-|-------9---------|
A|-----------------|---------------2-|-----------------|-------9---------|
E|-----------------|-----------------|-----------------|-------7---------|

Solo: (Which is overdubbed. The other two guitars play the chorus) 

E|-----------------------------|---------------------------|
B|-----------------------------|---------------------------|
G|-14^16---14^16---14-12-------|---------------11----11^13-|
D|-----------------------14-12-|-14---14-12-14----14-------|
A|-----------------------------|---------------------------|
E|-----------------------------|---------------------------|

  Hold bend     Release
E|------------------------|-------------------|
B|------------------------|-------------------|
G|----11--11-11-11--------|--------------11---|
D|--------PH-PH-PH--14~~~~|------------14--14-|
A|------------------------|-------------------|
E|------------------------|-------------------|

E|-----------------------------|---------------------------|
B|-----------------------------|---------------------------|
G|-14^16---14^16---14-12-------|---------------------/////-|
D|-----------------------14-12-|-14---14-12-14-12-14\------|
A|-----------------------------|---------------------------|
E|-----------------------------|---------------------------|
       
     
E|---------22----------------------|
B|---22^24---22(24)r22-20-22^24~~~~|
G|---------------------------------|
D|---------------------------------|
A|---------------------------------|
E|---------------------------------|

Verse 3:

     E5                                PM-----------|    PM-----------|   
E|-----------------|-----------------|-----------------|-----------------|
B|-----------------|-----------------|-----------------|-----------------|
G|---9---9---9---9-|---9---9---9-----|-----------------|---------------9-|
D|---9---9---9---9-|---9---9---9-----|-----------------|---------------9-|
A|---7---7---7---7-|---7---7---7-----|---2-2-2-2-2-2---|---2-2-2-2-2-2-7-|
E|-----------------|---------------3-|---0-0-0-0-0-0-3-|---0-0-0-0-0-0---|
|
|                                                                      E5
E|-----------------|-----------------|-----------------|-----------------|
B|-----------------|-----------------|-----------------|-----------------|
G|-----------------|-----------------|-----------------|-----------------|
D|-----------------|-----------------|-----------------|---------------9-|
A|-----------------|-----------------|-----------------|---------------7-|
E|---0---0---0---0-|---0---0---0---3-|---0-0-0-0-0-0-3-|---0-0-0-0-0-0-0-|

     E5                                PM-----------|    PM-----------|G5   
E|-----------------|-----------------|-----------------|-----------------|
B|-----------------|-----------------|-----------------|-----------------|
G|---9---9---9---9-|---9---9---9-----|-----------------|-----------------|
D|---9---9---9---9-|---9---9---9-----|-----------------|---------------5-|
A|---7---7---7---7-|---7---7---7-----|---2-2-2-2-2-2---|---2-2-2-2-2-2-5-|
E|-----------------|---------------3-|---0-0-0-0-0-0-3-|---0-0-0-0-0-0-3-|
|
|                                                                      G5
E|-----------------|-----------------|-----------------|-----------------|
B|-----------------|-----------------|-----------------|-----------------|
G|-----------------|-----------------|-----------------|-----------------|
D|-----------------|-----------------|-----------------|---------------5-|
A|-----------------|-----------------|-----------------|---------------5-|
E|---0---0---0---0-|---0---0---0---3-|---0-0-0-0-0-0-3-|---0-0-0-0-0-0-3-|

                                   F#5               B5                    
E|-----------------|-----------------|-----------------|-----------------|
B|-----------------|-----------------|-----------------|-----------------|
G|-----------------|-----------------|---------------4-|-----------------|
D|-----------------|---------------4-|---------------4-|-----------7---x-|
A|-----------------|---------------4-|---------------2-|-----------5---x-|
E|-----------------|---------------2-|-----------------|-----------------|
 |
 |                                 F#5               B5         
E|-----------------|-----------------|-----------------|-----------------|
B|-----------------|-----------------|-----------------|-----------------|
G|-----------------|-----------------|---------------4-|-----------------|
D|-----------------|---------------4-|---------------4-|-----------7-----|
A|-----------------|---------------4-|---------------2-|-----------5-----|
E|-----------------|---------------2-|-----------------|-----------------|

Chorus 3: (Repeat til fadeout) 


 E5        D5  PM  A5       B5       E5       D5   PM  A5        B5                  
E|-----------------|-----------------|-----------------|-----------------|
B|-----------------|-----------------|-----------------|-----------------| 
G|-9---9-----7-----|-2---2-----------|-9---9-----7-----|-2---2-----------|
D|-9---9-----7-----|-2---2-----9-----|-9---9-----7-----|-2---2-----9-----|
A|-7---7-----5---0-|-0---0-----9-----|-7---7-----5---0-|-0---0-----9---9-|
E|-----------------|-----------7---7-|-----------------|-----------7---7-|
 | 
E|-----------------|-----------------|-----------------|-----------------|
B|-----------------|-----------------|-----------------|-----------------|
G|-9---9-----7-----|-2---2-----------|-9---9-----7-----|-2---2-----------|
D|-9---9-----7-----|-2---2-----9-----|-9---9-----7-----|-2---2-----9-----|
A|-7---7-----5-----|-0---0-----9-----|-7---7-----5-----|-0---0-----9-----|
E|-----------------|-----------7-----|-----------------|-----------7-----|

   E5        D5  PM  A5       B5                      
E|-----------------|-----------------|-----------------|-----------------|
B|-----------------|-----------------|-----------------|-----------------|
G|-9---9-----7-----|-2---2-----------|-----------------|-----------------|
D|-9---9-----7-----|-2---2-----9---9-|-----9-----9---9-|-----9-----9-----|
A|-7---7-----5---0-|-0---0-----9---9-|-----9-----9---9-|-----9-----9-----|
E|-----------------|-----------7---7-|-----7-----7---7-|-----7-----7---7-|
 | 
E|-----------------|-----------------|-----------------|-----------------|
B|-----------------|-----------------|-----------------|-----------------|
G|-9---9-----7-----|-2---2-----------|-----------------|-----------------|
D|-9---9-----7-----|-2---2-----9---9-|-----9-----9---9-|-----9-----9-----|
A|-7---7-----5-----|-0---0-----9---9-|-----9-----9---9-|-----9-----9---9-|
E|-----------------|-----------7---7-|-----7-----7---7-|-----7-----7---7-| 




comments
print report bad tab
I want to post or [tab]
guest
You may want to rate the tab now too:
select rating
Please do not post tabs as comments. Select "correction" instead!