Oops, an error
Loading. Please wait.

Love You To Death Tab

ver1
ver1

Whole song

Interactive

More versions @911Tabs.com
435 views 3 this week
no commentswrite comment
1 2 3 4 5
excellent!
x 1
Autoscroll
+/-
esc
set tempo
stop
Contributor
Difficulty
novice
Hey! There's an official Ultimate Guitar app which is ideal
for learning songs when you're away from computer. Get the app
WARNING: You are trying to view
                                    content from Ultimate-Guitar.com
                                    in an unauthorized application,
                                    which is prohibited.

                                    Please use an official Ultimate
                                    Guitar Tabs application for iPhone,
                                    iPad or Android to access legitimate
                                    chords, guitar, bass, and drum tabs
                                    from Ultimate-Guitar.com database.

                                    Type "ultimate guitar tabs" in Apple
                                    App Store's or Android Market's
                                    search to find the application.
LOVE YOU TO DEATH - Judas Priest
From Ram it Down
        
Tabbed by Anton.
ironmaiden666666@ya.ru



                                                                                        
E||-----------------------------|----------------------------2-2-|-----------------------------|
B||-----------------------------|----------------------------2-2-|-----------------------------|
G||-----------------------------|--------------------------------|-----------------------------|
D||-----------------------------|--------------------------------|-----------------------------|
A||-----------------------------|------------------------0-------|-----------------------------|
E||--0-1-2-2---0-1-2----0-1-2-0-|--0-1-2-2---0-1-2-0-1-2---2-----|--0-1-2-2---1-2-0----0-1-2-0-|

                                                                          
---------------------------------|-------------------|-------------------|
---------------------------------|-------------------|-------------------|
---------------------------------|-------------------|-------------------|
---------------------------------|-------------------|-------------------|
---------------------------------|--4----------------|--4----------------|
--0-1-2-2-2--0-1-2-0-1-2-0-0-0-0-|--2----------------|--2----------------|

                                                                                           
-----------------------------|------------------------------|-----------------------------|
-----------------------------|------------------------------|-----------------------------|
-----------------------------|------------------------------|-----------------------------|
-----------------------------|------------------------------|-----------------------------|
--------0---------0----------|--------0---------0--0--------|--------0---------0----------|
--0-1-2-----0-1-2-----0-1-2--|--0-1-2-----0-1-2-------0-1-2-|--0-1-2-----0-1-2-----0-1-2--|

                                                                                            
------------------------------|-----------------------------|------------------------------|
------------------------------|-----------------------------|------------------------------|
------------------------------|-----------------------------|------------------------------|
------------------------------|-----------------------------|------------------------------|
--------0---------0--0--------|--------0---------0----------|--------0---------0--0--------|
--0-1-2-----0-1-2-------0-1-2-|--0-1-2-----0-1-2-----0-1-2--|--0-1-2-----0-1-2-------0-1-2-|


     0.5   0.5    0.5                                          0.5  0.5    0.5             
-------------------------|-----------------------------|-------------------------|
-------------------------|-----------------------------|-------------------------|
-------------------------|-----------------------------|-------------------------|
--2-------2----2------2--|-----------------------------|--2-------2----2------2--|
--0-------0----0------0--|--------0---------0----------|--0-------0----0------0--|
-------3b---3b-----3b----|--0-1-2-----0-1-2-----0-1-2--|-------3b---3b-----3b----|


                                     0.5  0.5   0.5                                             
-----------------------------|-------------------------|------------------------------|
-----------------------------|-------------------------|------------------------------|
-----------------------------|-------------------------|------------------------------|
-----------------------------|--2-------2----2------2--|------------------------------|
--------0---------0----------|--0-------0----0------0--|--------0---------0--0--------|
--0-1-2-----0-1-2-----0-1-2--|-------3b---3b-----3b----|--0-1-2-----0-1-2-------0-1-2-|

                                                                                         
--------2-------------|--------0-----------------|-----------------------|--------------|
--------2-------------|--------0-----------------|--7---7---7--------9-9-|--------------|
----------------------|--------------------------|--4---4---7--------9-9-|--------------|
----------------------|--------------------------|--4---4---7--------9-9-|--------------|
----------------------|--------------------------|----------5--------7-7-|--------------|
--0-1-2-2-------------|--0-1-2-0---------0-0-1-2-|-----------------------|--------------|

                                                                                           
------------------------------|-------------------|------------------|----5-5-------------|
----------------------5-6-7-7-|----------7--------|------------------|----5-5-------------|
------------------------------|-------------------|------------------|--------------------|
------------2-3-4-4-----------|-------------------|------------------|--------------------|
------------------------------|-------------------|------------------|--------------------|
--0-1-2-2---------------------|-------------------|------------------|--------------------|

                                                                                           
-----------------------------|------------------------------|-----------------------------|
-----------------------------|------------------------------|-----------------------------|
-----------------------------|------------------------------|-----------------------------|
-----------------------------|------------------------------|-----------------------------|
--------0---------0----------|--------0---------0--0--------|--------0---------0----------|
--0-1-2-----0-1-2-----0-1-2--|--0-1-2-----0-1-2-------0-1-2-|--0-1-2-----0-1-2-----0-1-2--|

                                                                                            
------------------------------|-----------------------------|------------------------------|
------------------------------|-----------------------------|------------------------------|
------------------------------|-----------------------------|------------------------------|
------------------------------|-----------------------------|------------------------------|
--------0---------0--0--------|--------0---------0----------|--------0---------0--0--------|
--0-1-2-----0-1-2-------0-1-2-|--0-1-2-----0-1-2-----0-1-2--|--0-1-2-----0-1-2-------0-1-2-|


     0.5   0.5    0.5                                          0.5  0.5    0.5            
-------------------------|-----------------------------|-------------------------|
-------------------------|-----------------------------|-------------------------|
-------------------------|-----------------------------|-------------------------|
--2-------2----2------2--|-----------------------------|--2-------2----2------2--|
--0-------0----0------0--|--------0---------0----------|--0-------0----0------0--|
-------3b---3b-----3b----|--0-1-2-----0-1-2-----0-1-2--|-------3b---3b-----3b----|

                                                                                
------------------------------|--------2-------------|--------0-----------------|
------------------------------|--------2-------------|--------0-----------------|
------------------------------|----------------------|--------------------------|
------------------------------|----------------------|--------------------------|
--------0---------0--0--------|----------------------|--------------------------|
--0-1-2-----0-1-2-------0-1-2-|--0-1-2-2-------------|--0-1-2-0---------0-0-1-2-|

                                                                                                  
-----------------------|----------|-----------------------------|----------------------------2-2-|
--7---7---7--------9-9-|----------|-----------------------------|----------------------------2-2-|
--4---4---7--------9-9-|----------|-----------------------------|--------------------------------|
--4---4---7--------9-9-|----------|-----------------------------|--------------------------------|
----------5--------7-7-|----------|-----------------------------|------------------------0-------|
-----------------------|----------|--0-1-2-2---0-1-2----0-1-2-0-|--0-1-2-2---0-1-2-0-1-2---2-----|

                                                                                      
-----------------------------|----------------------------2--|-----------------------|
-----------------------------|----------------------------2--|-----------------------|
-----------------------------|-------------------------------|--7-------7------------|
-----------------------------|-------------------------------|--7---7---7---7---7----|
-----------------------------|------------------------0------|--5---7---5---7---7----|
--0-1-2-2---0-1-2----0-1-2-0-|--0-1-2-2---0-1-2-0-1-2---2----|------5-------5---5----|

                                                                                                   
-----------------------|-----------------------|------------------------------|-------------------|
-----------------------|-----------------------|------------------------------|-------------------|
--7-------7------------|--9-------9------------|--9---------------------------|-------------------|
--7---7---7---7---7----|--9---9---9---9---9----|--9---9---11---12\11--11/12---|-------------------|
--5---7---5---7---7----|--7---9---7---9---9----|--7---9---11---12\11--11/12---|--2----------------|
------5-------5---5----|------7-------7---7----|------7---9----10\9---9/-10---|--0----------------|

                                                                              
------------------|-----------------------------|----------------------------|
------------------|-----------------------------|----------------------------|
------------------|-----------------------------|-----------------------6----|
------------------|-----------------------------|------------2----------4----|
------------------|------------------------0----|----3-----4-----------------|
------------------|--2-2-2-2-5-2--2-2--2-2------|--2-----2------2-2-2-0------|

                                                                                         
-----------------------------|----------------------------|-----------------------------|
-----------------------------|----------------------------|-----------------------------|
-----------------------------|-----------------------6----|-----------------------------|
-----------------------------|------------2----------4----|-----------------------------|
------------------------0----|----3-----4-----------------|------------------------0----|
--2-2-2-2-5-2--2-2--2-2------|--2-----2------2-2-2-0------|--2-2-2-2-5-2--2-2--2-2------|

                                                                                           
----------------------------|----------14-17-14----14-------------------------------------|
----------------------------|--17b--------------17----17-14-17-14----14-------------------|
-----------------------6----|-------------------------------------16----16-14-17-16-14----|
------------2----------4----|----------------------------------------------------------16-|
----3-----4-----------------|-------------------------------------------------------------|
--2-----2------2-2-2-0------|-------------------------------------------------------------|

                                                                                    
----------------------------------------------|----------------------------2-------|
-------------------------------------------4--|--2-2-x-2-x-x-2-2----2-2------5-2---|
--14---------------------------------------4--|--2-2-x-2-x-x-2-2----2-2-4b-------4-|
-----16-14-16-14------------------------------|------------------4-----------------|
-----------------14-14-13-12----12------------|------------------------------------|
-----------------------------15----14~--------|------------------------------------|

                                   
----------------------------------|
--2-------------------------------|
----5-5-4-2---2-2-4-4-4-----------|
------------4------------------11-|
----------------------------------|
----------------------------------|

                                                                                        
----------9-10-x-17-14------------------9-10-17-14-------------------------------------|
--9-10-12--------------17-16-13-10-9-10------------17-x-12-10-9-12-10-9----------------|
------------------------------------------------------------------------11-x-9---------|
-------------------------------------------------------------------------------11-9-11-|
---------------------------------------------------------------------------------------|
---------------------------------------------------------------------------------------|

                                   
----------------------------------|
-------------------------------0--|
-------------------------------0--|
-------------------------------0--|
--9/-11\-9--7-9-11----------------|
-------------------9--x--x--x-----|

                                                                                            
----------------------------10-10-14-14-12-10-12-12-12-16-16-14-13-14-14-14-14-17-16-15-16-|
-----------------------x-10----------------------------------------------------------------|
------------------9-11---------------------------------------------------------------------|
----------9-11-12--------------------------------------------------------------------------|
--9-11-12----------------------------------------------------------------------------------|
-------------------------------------------------------------------------------------------|

                                                                                                
16-16-16-16-19-17-16-17-17-17-17-17-17-21-19-18-19-19-19-19-19-19-19-22-20-19-19-19-24-21----21-22-2
------------------------------------------------------------------------------------------24--------
----------------------------------------------------------------------------------------------------
----------------------------------------------------------------------------------------------------
----------------------------------------------------------------------------------------------------
----------------------------------------------------------------------------------------------------

                                                                                                    
--24b---------------|-----------------------|-----------------------|------------------------------|
--------------------|-----------------------|-----------------------|------------------------------|
--------------------|--7-------7------------|--9-------9------------|--9---------------------------|
--------------------|--7---7---7---7---7----|--9---9---9---9---9----|--9---9---11---12\11--11/12---|
--------------------|--5---7---5---7---7----|--7---9---7---9---9----|--7---9---11---12\11--11/12---|
--------------------|------5-------5---5----|------7-------7---7----|------7---9----10\9---9/-10---|

                                                                                             
--------2-------------|--------0-----------------|-----------------------|------------------|
--------2-------------|--------0-----------------|--7---7---7--------9-9-|------------------|
----------------------|--------------------------|--4---4---7--------9-9-|------------------|
----------------------|--------------------------|--4---4---7--------9-9-|------------------|
----------------------|--------------------------|----------5--------7-7-|------------------|
--0-1-2-2-------------|--0-1-2-0---------0-1-2-2-|-----------------------|------------------|

                                                                                             
-----------------------------|----------------------------2-2-|-----------------------------|
-----------------------------|----------------------------2-2-|-----------------------------|
-----------------------------|--------------------------------|-----------------------------|
-----------------------------|--------------------------------|-----------------------------|
-----------------------------|------------------------0-------|-----------------------------|
--0-1-2-2---0-1-2----0-1-2-0-|--0-1-2-2---0-1-2-0-1-2---2-----|--0-1-2-2---0-1-2----0-1-2-0-|


                                                                                              8x
----------------------------2-2-||------------------------------|-----------------------------||
----------------------------2-2-||------------------------------|-----------------------------||
--------------------------------||*-----------------------------|-----------------------6----*||
--------------------------------||*-----------------------------|------------2----------4----*||
------------------------0-------||-------------------------0----|----3-----4------------------||
--0-1-2-2---0-1-2-0-1-2---2-----||---2-2-2-2-5-2--2-2--2-2------|--2-----2------2-2-2-0-------||

The end.



comments
We did not receive enough feedback on this tab! Please rate:
print report bad tab
1 2 3 4 5
I want to post or [tab]
guest
You may want to rate the tab now too:
select rating
Please do not post tabs as comments. Select "correction" instead!