Oops, an error
Loading. Please wait.

Night Comes Down Tab

3,323 views 21 this week
no commentswrite comment
1 2 3 4 5
excellent!
x 2
Autoscroll
+/-
esc
set tempo
stop
Difficulty
intermediate
WARNING: You are trying to view
                                    content from Ultimate-Guitar.com
                                    in an unauthorized application,
                                    which is prohibited.

                                    Please use an official Ultimate
                                    Guitar Tabs application for iPhone,
                                    iPad or Android to access legitimate
                                    chords, guitar, bass, and drum tabs
                                    from Ultimate-Guitar.com database.

                                    Type "ultimate guitar tabs" in Apple
                                    App Store's or Android Market's
                                    search to find the application.
band: Judas Priest
When the night comes down
album : defenders of the faith

Gt I (E A D G B E) 


 Intro
     G/B       D                      A5        D              B5
 4/4
  Gtr I
|----3--(3)-3--2-|-(2)--------|-(2)---------------|----------------|
|----3--(3)-3--3-|-(3)--------|-(3)---5--(5)-5--3-|-(3)----(3)-----|
|----4--(4)-4--2-|-(2)--------|-(2)---2--(2)-2--2-|-(2)----(2)-4---|
|----------------|------------|-----------------0-|-(0)----(0)-4---|
|----------------|------------|-----3-------------|------------2---|
|--0-------------|------------|-------------------|----------------|


     G/B       D                      A5        D              B5
|----3--(3)-3--2-|-(2)--------|-(2)---------------|----------------|
|----3--(3)-3--3-|-(3)--------|-(3)---5--(5)-5--3-|-(3)----(3)-----|
|----4--(4)-4--2-|-(2)--------|-(2)---2--(2)-2--2-|-(2)----(2)-4---|
|----------------|------------|-----------------0-|-(0)----(0)-4---|
|----------------|------------|-----3-------------|------------2---|
|-0--------------|------------|-------------------|----------------|


  Em
|-0--------|-(0)--------|-(0)--------|-(0)----||
|-0--------|-(0)--------|-(0)--------|-(0)----||
|-0--------|-(0)--------|-(0)--------|-(0)----||
|-2--------|-(2)--------|-(2)--------|-(2)----||
|-2--------|-(2)--------|-(2)--------|-(2)----||
|-0--------|-(0)--------|-(0)--------|-(0)----||


   Verse
    G/E                E5               C5    Em9                   D5
||-------10-(10)----|-----------------|-------------------|-------------------|
||o-------8--(8)----|-----------------|-------------------|-------------------|
||------------------|------9-(9)------|-----5---------0---|---------x-x-x-7---|
||-----9------------|------9-(9)------|---5---------4-----|---------x-x-x-7---|
||o-----------------|----7--------7\--|-3-----5-(5)-------|---------x-x-x-5---|
||---0--------------|--0--------------|-----------------0-|-(0)---------------|


   G/E               E5               C5    Em9       B5
|------10-(10)----|-----------------|-------------------|
|-------8--(8)----|-----------------|-------------------|
|-----------------|------9-(9)------|-----5---------0-4-|
|----9------------|------9-(9)------|---5---------4---4-|
|-----------------|----7--------7\--|-3-----5-(5)-----2-|
|--0--------------|--0--------------|-------------------|


  B5   N.C.             B5                      N.C.          B5
|-------------------------|------------|-------------------------|
|-------------------------|------------|-------------------------|
|-(4)-------------------4-|-(4)--------|-(4)------------------4--|
|-(4)-------------------4-|-(4)--------|-(4)------------------4--|
|-(2)--2--3-2-0-0-3-2-0-2-|-(2)--------|-(2)----3-2-0-0-3-2-0-2--|
|-------------------------|------------|-------------------------|


  B5                  N.C.          A5open        Am7/C
|------------|------------------------|-------------|
|------------|------------------------|-------------|
|-(4)--------|-(4)------------------2-|-(2)---------|
|-(4)--------|-(4)------------------2-|-(2)---------|
|-(2)--------|-(2)----3-2-0-0-2-0---0-|-(0)-------3-|
|------------|--------------------3---|-------------|


                         Chorus
  Am7/C   B5              Gmaj7/E     N.C.
|----------------------||-------------------|---------------------|
|----------------------||-------------------|---------------------|
|-------2-------x-x-4--||-------0-(0)-------|-----0---------------|
|-----5---------x-x-4--||-----4-------2-----|---------4-(4)s2-0---|
|-(3)-----2-(2)-x-x-2--||---2-----------2-3-|-(3)---3-----------3-|
|----------------------||-0-----------------|---------------------|


  1.                                     2.
  G/Eopen         Gm/C                   G/Eopen
|-------------------|-----------------||-------------------|
|-------------------|----------------o||-------------------|
|-------0-(0)-----3-|-(3)------(3)/---||-------0-(0)-------|
|-----------------5-|-(5)------(5)/---||-------------------|
|---2-----------2-3-|-(3)------(3)/--o||---2-----------2-3-|
|-0---0-------0-----|-----------------||-0---0-------0-----|


                       Verse
  N.C.                  B5         C5   C#5D5        E5/B
|--------------------||--------------|-------------------|
|--------------------||--------------|---------------5\--|
|-----0-----------0--||--------------|---------------4\--|
|---------------4----||-4-4--4--4--5-|--6--7-(7)-7-7-----|
|-(3)---3s5-(5)------||-2-2--2--2--3-|--4--5-(5)-5-5-----|
|--------------------||--------------|-------------------|


  B5         C5      G5        F#5  B5         C5
|--------------|------------------|--------------|
|--------------|------------------|--------------|
|--------------|------------------|--------------|
|-4-4--4--4--5-|--5---------------|-4-4--4--4--5-|
|-2-2--2--2--3-|--3--5-(5)-5-5-4--|-2-2--2--2--3-|
|--------------|-----3-(3)-3-3-2--|--------------|


   C#5D5    E5        B5         C5      G5        F#5
|-------------------|--------------|-------------------||
|-------------------|--------------|-------------------||
|-----------9-9-9\--|--------------|-------------------||
|--6--7-(7)-9-9-9\--|-4-4--4--4--5-|--5----------------||
|--4--5-(5)-7-7-7\--|-2-2--2--2--3-|--3--5-(5)-5-5-4---||
|-------------------|--------------|-----3-(3)-3-3-2---||


 Guitar Solo
  F#5
|----------------------------------|---------------------------|
|----------------------------------|---------------------------|
|----------------------------------|---------------------------|
|----------------------------------|---------------------------|
|-(4)------------------------------|-(4)-----------------------|
|-(2)------------------------------|-(2)-----------------------|
|
| Gtr II
|----------------------------------|---------------------------|
|--7b10----7b10===(7)---(7)r=(7)p5-|--7b8----5-(5)-3h5p3-------|
|----------------------------------|---------------------4s2-0-|
|----------------------------------|---------------------------|
|----------------------------------|---------------------------|
|----------------------------------|---------------------------|
|
| Gtr III
|----------------------------------|---------------------------|
|-10b13---10b13==(10)--(10)r(10)p8-|-10b11---8-(8)-------------|
|----------------------------------|---------------------------|
|----------------------------------|---------------------------|
|----------------------------------|---------------------------|
|----------------------------------|---------------------------|


  C5            D5                E5
|-------------------------------|---------------------|------------------------------------|
|-------------------------------|---------------------|------------------------------------|
|-------------------------------|---------------------|------------------------------------|
|-------------------------------|---------------------|------------------------------------|
|-------------------------------|---------------------|------------------------------------|
|-------------------------------|---------------------|------------------------------------|
|
|-------------------------------|---------------------|------------------------------------|
|-------------------------------|----------------5--7-|--7b9====(7)---7b9====(7)r(7)-------|
|-5--------------7--------------|--9----9--9\---------|------------------------------5-----|
|-5--------------7--------------|--9----9--9\---------|---------------------------------4--|
|-3--------------5--------------|--7----7--7\---------|------------------------------------|
|-------------------------------|---------------------|------------------------------------|
|
|-------------------------------|---------------19-22-|-22b24==(22)--22b24==(22)-------19--|
|-------------------------------|---------------------|------------------------------------|
|---[7]b9r(7)-4-----------------|---------------------|------------------------------------|
|---------------[7]b9r(7)-4s5---|---------------------|------------------------------------|
|-----------------------------7-|-(7)-----(7)\--------|------------------------------------|
|-------------------------------|---------------------|------------------------------------|


                                       C5          D5
|------------------------------------|--------------------------||
|------------------------3h5p3-------|--------------------------||
|--7---(7)--7b9====(7)r--------4s2-0-|-5-----------7------------||
|------------------------------------|-5-----------7------------||
|------------------------------------|-3-----------5------------||
|------------------------------------|--------------------------||
|
|                   ~~~~~~
|------------------------------------|--------------------------||
|------------------------------------|---7b9r(7)---8b10r(8)-7-8-||
|-19--(19)-19b21==(19)r\-------------|-----------7--------------||
|------------------------------------|--------------------------||
|------------------------------------|--------------------------||
|------------------------------------|--------------------------||


  E5           B5                                         N.C.          B5
 2/4                     4/4
|----------------------||------------------------|------------------------|
|----------------------||------------------------|------------------------|
|-9-------------4------||--(4)-------------------|-(4)------------------4-|
|-9-------------4------||--(4)-------------------|-(4)------------------4-|
|-7-------------2------||--(2)-------------------|-(2)----3-2-0-0-3-2-0-2-|
|----------------------||------------------------|------------------------|
|
|----------------------||------------------------|------------------------|
|--------------10-(10)-||-(10)-------------------|------------------------|
|------------7---------||----------4s2---4s2-----|--2---------------------|
|--------7-9-----------||--------------4-----2s4-|--4---------------------|
|-7-9-10---------------||------------------------|------------------------|
|----------------------||------------------------|------------------------|


  B5                      A5open N.C.          A5open
|-----------------------|------------------------|
|-----------------------|------------------------|
|-(4)-------------------|-(4)------------------2-|
|-(4)-------------------|-(4)------------------2-|
|-(2)-------------------|-(2)----3-2-0-0-2-0---0-|
|-----------------------|--------------------3---|
|
|                          ~~~~~~~~~~~~~~~~~~~~~~~
|-----------------------|------------------------|
|-----------------------|------------------------|
|-(2)-----4s2---4s2-----|-/2---------------------|
|-------------4-----2s4-|-/2---------------------|
|-----------------------|------------------------|
|-----------------------|------------------------|


            Am7/C             B5
|-------------|----------------------||
|-------------|----------------------||
|-(2)---------|-------2-------x-x-4--||
|-(2)---------|-----5---------x-x-4--||
|-(0)-------3-|-(3)-----2-(2)-x-x-2--||
|-------------|----------------------||
|
|~~~~~
|-------------|----------------------||
|-------------|----------------------||
|-(2)---------|-(2)------------------||
|-(2)---------|-(2)------------------||
|-------------|----------------------||
|-------------|----------------------||


   Out-Chorus
    Gmaj7/E     N.C.
    Gtrs I, II
||--------------------|---------------------|
||o-------------------|---------------------|
||--------0-(0)-------|-----0---------------|
||------4-------2-----|---------4-(4)-------|
||o---2-----------2-3-|-(3)---3-------7s5---|
||--0-----------------|-------------------3-|


  G/Eopen         N.C.
|-------------------|---------------------|
|-------------------|---------------------|
|-------0-(0)-------|-----0-----------0---|
|-------------------|---------------4-----|
|---2-----------2-3-|-(3)---3s5-(5)-------|
|-0---0-------0-----|---------------------|


  Gmaj7/E     N.C.
|-------------------|---------------------|
|-------------------|---------------------|
|-------0-(0)-------|-----0---------------|
|-----4-------2-----|---------4-(4)-------|
|---2-----------2-3-|-(3)---3-------7s5---|
|-0-----------------|-------------------3-|


  G/Eopen         N.C.
|-------------------|---------------------||
|-------------------|--------------------o||
|-------0-(0)-------|-----0-----------0---||
|-------------------|---------------4-----||
|---2-----------2-3-|-(3)---3s5-(5)------o||
|-0---0-------0-----|---------------------||

long live judas priest/this is a correct tab 
comments
We did not receive enough feedback on this tab! Please rate:
print report bad tab
1 2 3 4 5
I want to post or [tab]
guest
You may want to rate the tab now too:
select rating
Please do not post tabs as comments. Select "correction" instead!