Oops, an error
Loading. Please wait.

Pain And Pleasure Tab

1,244 views 18 this week
no commentswrite comment
1 2 3 4 5
excellent!
x 1
Autoscroll
+/-
esc
set tempo
stop
Contributor
Difficulty
intermediate
WARNING: You are trying to view
                                    content from Ultimate-Guitar.com
                                    in an unauthorized application,
                                    which is prohibited.

                                    Please use an official Ultimate
                                    Guitar Tabs application for iPhone,
                                    iPad or Android to access legitimate
                                    chords, guitar, bass, and drum tabs
                                    from Ultimate-Guitar.com database.

                                    Type "ultimate guitar tabs" in Apple
                                    App Store's or Android Market's
                                    search to find the application.
-----------------------------------------------------------------------------
                                  

               Pain and Pleasure  - Judas Priest (GUITAR)
            
-----------------------------------------------------------------------------
Tabbed by: Scotto10

Tuning: standard tuning

=============================================================================

                                                                    
Guitar 1



          PM                                 PM                    
     S  S S  S  E  E.  S  E  S  E  S    S  S S  S  E  H        E   
E||----------------------------------|----------------------------|
B||----------------------------------|----------------3--------L--|
G||--0h-2----2p-0------2p-0--0h-2----|--0h-2----2p-0--2--------L--|
D||--0h-2-2--2p-0--2---2p-0--0h-2----|--0h-2-2--2p-0--0--------L--|
A||----------------------------------|----------------------------|
E||----------------------------------|----------------------------|


       PM                                 PM                       
  S  S S  S  E  E.  S  E  S  E  S    S  S S  S  E  Q    S S E  E   
----------------------------------|---------------------2-2-3-----|
----------------------------------|----------------3----3-3-3-----|
--0h-2----2p-0------2p-0--0h-2----|--0h-2----2p-0--2----2-2-2-----|
--0h-2-2--2p-0--2---2p-0--0h-2----|--0h-2-2--2p-0--0----0-0-0-----|
----------------------------------|-------------------------------|
----------------------------------|-------------------------------|


  S  S S E.  E   S S  S  S S  S E     S  S S S E  E  S S  S  S S  E  S  
-----------------------------------|-----------------------------------|
-----------------------------------|-----------------------------------|
-----------------------------------|-----------------------------------|
-----------------------------------|--5s-7-7-7----7--L-7s-5----7s-5----|
--5s-7-7-7---L\----7s-5----5s-7----|--3s-5-5-5----5--L-5s-3p-0-5s-3----|
--3s-5-5-5---L\----5s-3p-0-3s-5----|---------------------------------0-|


  S  S S E.  E   S S  S  S S  S E     S  S S S E  S S S S  S  S S  E  S  
-----------------------------------|------------------------------------|
-----------------------------------|------------------------------------|
-----------------------------------|------------------------------------|
-----------------------------------|--5s-7-7-7----7-L-7-7s-5----7s-5----|
--5s-7-7-7---L\----7s-5----5s-7----|--3s-5-5-5----5-L-5-5s-3p-0-5s-3----|
--3s-5-5-5---L\----5s-3p-0-3s-5----|----------------------------------0-|


  S  S S E.  E   S S  S  S S  S E     S  S S S E  E.  S  S  S S  E  S  
-----------------------------------|----------------------------------|
-----------------------------------|----------------------------------|
-----------------------------------|----------------------------------|
-----------------------------------|--5s-7-7-7----7---Ls-5----7s-5----|
--5s-7-7-7---L\----7s-5----5s-7----|--3s-5-5-5----5---Ls-3p-0-5s-3----|
--3s-5-5-5---L\----5s-3p-0-3s-5----|--------------------------------0-|


  S  S S E.  E   S S  S  S S  S E     S  S S S E  E.  S  S  S S  E  S  
-----------------------------------|----------------------------------|
-----------------------------------|----------------------------------|
-----------------------------------|----------------------------------|
-----------------------------------|--5s-7-7-7----7---7s-5----7s-5----|
--5s-7-7-7---L\----7s-5----5s-7----|--3s-5-5-5----5---5s-3p-0-5s-3----|
--3s-5-5-5---L\----5s-3p-0-3s-5----|--------------------------------0-|


  S  S S E.  E   S S  S  S S  S E     S  S S S E  E.  S  S  S S  E  S  
-----------------------------------|----------------------------------|
-----------------------------------|----------------------------------|
-----------------------------------|----------------------------------|
-----------------------------------|--5s-7-7-7----7---7s-5----7s-5----|
--5s-7-7-7---L\----7s-5----5s-7----|--3s-5-5-5----5---5s-3p-0-5s-3----|
--3s-5-5-5---L\----5s-3p-0-3s-5----|--------------------------------0-|


  S  S S E.  E   S S  S  S S  S E     S  S S S E  E.  S  S  S S  E  S  
-----------------------------------|----------------------------------|
-----------------------------------|----------------------------------|
-----------------------------------|----------------------------------|
-----------------------------------|--5s-7-7-7----7---Ls-5----7s-5----|
--5s-7-7-7---L\----7s-5----5s-7----|--3s-5-5-5----5---Ls-3p-0-5s-3----|
--3s-5-5-5---L\----5s-3p-0-3s-5----|--------------------------------x-|


  Q.     H        E     Q.     H        E     Q.     Q.     Q     
---------------------|---------3-----------|---------------------|
---------------------|---------3-----------|--3-------------3----|
--2------5-----------|---------------------|--2------0------0----|
--2------5-----------|--5------------------|--0------0------x----|
--0------------------|--5------------------|---------x------3----|
---------------------|--3------------------|---------3-----------|


  S  S S H.           S    Q.     H        E     Q.     H        E   
------------------------|---------------------|---------3-----------|
------------------------|---------------------|---------3-----------|
------------------------|--2------5-----------|---------------------|
------------------------|--2------5-----------|--5------------------|
--5s-7-7-7--------------|--0------------------|--5------------------|
--3s-5-5-5--------------|---------------------|--3------------------|


  Q.     Q.     Q       S S S S S Q    S Q.        Q.     Q.     S E.    
---------------------|--------------------------|-----------------------|
--3-------------3----|--------------------------|--3--------------------|
--2------x------0----|-------------------0------|--2------2-------------|
--0------2------x----|--2-2-2-2-2--------0------|--0------2------2------|
---------2------3----|--0-0-0-0-0---------------|---------0------0------|
---------0-----------|-------------------3------|------------------3~---|


                        PM PM                              
  S S S S S E  Q.     S S  S     S  S S S S S H        E   
------------------------------|---------------------------|
------------------------------|---------------------------|
---------------0--------------|---------------2--------L--|
---------------0--------------|---------------2--------L--|
--3-3-3-3-3-------------------|--3s-5-5-5-5---0--------L--|
--1-1-1-1-1----3--------0--0--|--1s-3-3-3-3---------------|


  S S S S S Q    S Q.        Q.     Q.     S E.    
--------------------------|-----------------------|
--------------------------|--3--------------------|
-------------------0------|--2------2-------------|
--2-2-2-2-2--------0------|--0------2------2------|
--0-0-0-0-0---------------|---------0------0------|
-------------------3------|------------------3~---|


                        PM PM                              
  S S S S S E  Q.     S S  S     S  S S S S S H        E   
------------------------------|---------------------------|
------------------------------|---------------------------|
---------------0--------------|---------------2--------L--|
---------------0--------------|---------------2--------L--|
--3-3-3-3-3-------------------|--3s-5-5-5-5---0--------L--|
--1-1-1-1-1----3--------0--0--|--1s-3-3-3-3---------------|


  S  S S E.  E   S S  S  S S  S E     S  S S S E  E.  S  S  S S  E  S  
-----------------------------------|----------------------------------|
-----------------------------------|----------------------------------|
-----------------------------------|----------------------------------|
-----------------------------------|--5s-7-7-7----7---Ls-5----7s-5----|
--5s-7-7-7---L\----7s-5----5s-7----|--3s-5-5-5----5---Ls-3p-0-5s-3----|
--3s-5-5-5---L\----5s-3p-0-3s-5----|--------------------------------0-|


  S  S S E.  E   S S  S  S S  S E     S  S S S E  E.  S  S  S S  E  S  
-----------------------------------|----------------------------------|
-----------------------------------|----------------------------------|
-----------------------------------|----------------------------------|
-----------------------------------|--5s-7-7-7----7---7s-5----7s-5----|
--5s-7-7-7---L\----7s-5----5s-7----|--3s-5-5-5----5---5s-3p-0-5s-3----|
--3s-5-5-5---L\----5s-3p-0-3s-5----|--------------------------------0-|


  S  S S E.  E   S S  S  S S  S E     S  S S S E  E.  S  S  S S  E  S  
-----------------------------------|----------------------------------|
-----------------------------------|----------------------------------|
-----------------------------------|----------------------------------|
-----------------------------------|--5s-7-7-7----7---7s-5----7s-5----|
--5s-7-7-7---L\----7s-5----5s-7----|--3s-5-5-5----5---5s-3p-0-5s-3----|
--3s-5-5-5---L\----5s-3p-0-3s-5----|--------------------------------0-|


  S  S S E.  E   S S  S  S S  S E     S  S S S E  E.  S  S  S S  E  S  
-----------------------------------|----------------------------------|
-----------------------------------|----------------------------------|
-----------------------------------|----------------------------------|
-----------------------------------|--5s-7-7-7----7---Ls-5----7s-5----|
--5s-7-7-7---L\----7s-5----5s-7----|--3s-5-5-5----5---Ls-3p-0-5s-3----|
--3s-5-5-5---L\----5s-3p-0-3s-5----|--------------------------------x-|


  S S S S S Q    S Q.        Q.     Q.     S E.    
--------------------------|-----------------------|
--------------------------|--3--------------------|
-------------------0------|--2------2-------------|
--2-2-2-2-2--------0------|--0------2------2------|
--0-0-0-0-0---------------|---------0------0------|
-------------------3------|------------------3~---|


  PM PM PM PM PM             PM PM         PM PM PM                
  S  S  S  S  S  E  Q.     S S  S     S  S S  S  S  S H        E   
-----------------------------------|------------------------------|
-----------------------------------|------------------------------|
--------------------0--------------|------------------2--------L--|
--------------------0--------------|------------------2--------L--|
--3--3--3--3--3--------------------|--3s-5-5--5--5----0--------L--|
--1--1--1--1--1-----3--------0--0--|--1s-3-3--3--3----------------|


  S S S S S Q    S Q.        Q.     Q.     S E.    
--------------------------|-----------------------|
--------------------------|--3--------------------|
-------------------0------|--2------2-------------|
--2-2-2-2-2--------0------|--0------2------2------|
--0-0-0-0-0---------------|---------0------0------|
-------------------3------|------------------3~---|


  PM PM PM PM PM             PM PM         PM PM PM                
  S  S  S  S  S  E  Q.     S S  S     S  S S  S  S  S H        E   
-----------------------------------|------------------------------|
-----------------------------------|------------------------------|
--------------------0--------------|------------------2--------L--|
--------------------0--------------|------------------2--------L--|
--3--3--3--3--3--------------------|--3s-5-5--5--5----0--------L--|
--1--1--1--1--1-----3--------0--0--|--1s-3-3--3--3----------------|


  S  S S S  E  E.  S  E  S  E  S    S  S S S  E  H        E   
---------------------------------|---------------------------|
---------------------------------|---------------3--------L--|
--0h-2---2p-0------2p-0--0h-2----|--0h-2---2p-0--2--------L--|
--0h-2---2p-0--2---2p-0--0h-2----|--0h-2---2p-0--0--------L--|
---------------------------------|---------------------------|
---------------------------------|---------------------------|


  S  S S S  E  E.  S  E  S  E  S    S  S S S  E  Q    S S Q     
---------------------------------|--------------------2-2-3----|
---------------------------------|---------------3----3-3-3----|
--0h-2---2p-0------2p-0--0h-2----|--0h-2---2p-0--2----2-2-2----|
--0h-2---2p-0--2---2p-0--0h-2----|--0h-2---2p-0--0----0-0-0----|
---------------------------------|-----------------------------|
---------------------------------|-----------------------------|


  S  S S Q.     S  S S S  E  S    S  S S E  S H        E   
-------------------------------|--------------------------|
-------------------------------|--------------3--------L--|
--0h-2-2-2------2p-0---0h-2--L-|--0h-2---0----2--------L--|
--0h-2-2-2------2p-0---0h-2--L-|--0h-2---2----0--------L--|
---------------------0---------|-------3------------------|
-------------------------------|--------------------------|


  S  S S Q.     S  S S S  E  S    S  S S E  S Q.     Q     
-------------------------------|--------------3------3----|
-------------------------------|--------------3------3----|
--0h-2-2-2------2p-0---0h-2--L-|--0h-2---0----2------2----|
--0h-2-2-2------2p-0---0h-2--L-|--0h-2---2----0------0----|
---------------------0---------|-------3------------------|
-------------------------------|--------------------------|


  S  S S Q.     S  S S S  E  S    S  S S E  S H        E   
-------------------------------|--------------------------|
-------------------------------|--------------3--------L--|
--0h-2-2-2------2p-0---0h-2--L-|--0h-2---0----2--------L--|
--0h-2-2-2------2p-0---0h-2--L-|--0h-2---2----0--------L--|
---------------------0---------|-------3------------------|
-------------------------------|--------------------------|


  S  S S Q.     S  S S S  E  S    S  S S E  S Q.     Q     
-------------------------------|--------------3------3----|
-------------------------------|--------------3------3----|
--0h-2-2-2------2p-0---0h-2--L-|--0h-2---0----2------2----|
--0h-2-2-2------2p-0---0h-2--L-|--0h-2---2----0------0----|
---------------------0---------|-------3------------------|
-------------------------------|--------------------------|


  Q.     H        E     Q.     H        E     Q.     Q.     Q     
---------------------|---------3-----------|---------------------|
---------------------|---------3-----------|--3-------------3----|
--2------5-----------|---------------------|--2------0------0----|
--2------5-----------|--5------------------|--0------0------x----|
--0------------------|--5------------------|---------x------3----|
---------------------|--3------------------|---------3-----------|


  S  S S H.           S    Q.     H        E     Q.     H        E   
------------------------|---------------------|---------3-----------|
------------------------|---------------------|---------3-----------|
------------------------|--2------5-----------|---------------------|
------------------------|--2------5-----------|--5------------------|
--5s-7-7-7--------------|--0------------------|--5------------------|
--3s-5-5-5--------------|---------------------|--3------------------|


  Q.     Q.     Q       S S S S S Q    S Q.        Q.     Q.     S E.    
---------------------|--------------------------|-----------------------|
--3-------------3----|--------------------------|--3--------------------|
--2------x------0----|-------------------0------|--2------2-------------|
--0------2------x----|--2-2-2-2-2--------0------|--0------2------2------|
---------2------3----|--0-0-0-0-0---------------|---------0------0------|
---------0-----------|-------------------3------|------------------3~---|


                        PM PM                              
  S S S S S E  Q.     S S  S     S  S S S S S H        E   
------------------------------|---------------------------|
------------------------------|---------------------------|
---------------0--------------|---------------2--------L--|
---------------0--------------|---------------2--------L--|
--3-3-3-3-3-------------------|--3s-5-5-5-5---0--------L--|
--1-1-1-1-1----3--------0--0--|--1s-3-3-3-3---------------|


  S S S S S Q    S Q.        Q.     Q.     S E.    
--------------------------|-----------------------|
--------------------------|--3--------------------|
-------------------0------|--2------2-------------|
--2-2-2-2-2--------0------|--0------2------2------|
--0-0-0-0-0---------------|---------0------0------|
-------------------3------|------------------3~---|


                        PM PM                              
  S S S S S E  Q.     S S  S     S  S S S S S H        E   
------------------------------|---------------------------|
------------------------------|---------------------------|
---------------0--------------|---------------2--------L--|
---------------0--------------|---------------2--------L--|
--3-3-3-3-3-------------------|--3s-5-5-5-5---0--------L--|
--1-1-1-1-1----3--------0--0--|--1s-3-3-3-3---------------|


  S S S S S Q    S Q.        Q.     Q.     S E.    
--------------------------|-----------------------|
--------------------------|--3--------------------|
-------------------0------|--2------2-------------|
--2-2-2-2-2--------0------|--0------2------2------|
--0-0-0-0-0---------------|---------0------0------|
-------------------3------|------------------3~---|


                        PM PM                              
  S S S S S E  Q.     S S  S     S  S S S S S H        E   
------------------------------|---------------------------|
------------------------------|---------------------------|
---------------0--------------|---------------2--------L--|
---------------0--------------|---------------2--------L--|
--3-3-3-3-3-------------------|--3s-5-5-5-5---0--------L--|
--1-1-1-1-1----3--------0--0--|--1s-3-3-3-3---------------|


  S S S S S Q    S Q.        Q.     Q.     S E.    
--------------------------|-----------------------|
--------------------------|--3--------------------|
-------------------0------|--2------2-------------|
--2-2-2-2-2--------0------|--0------2------2------|
--0-0-0-0-0---------------|---------0------0------|
-------------------3------|------------------3~---|


                        PM PM                                                   
  S S S S S E  Q.     S S  S     S  S S S S S H        E     W                  
------------------------------|---------------------------|-------------------||
------------------------------|---------------------------|-------------------||
---------------0--------------|---------------2--------L--|--L----------------||
---------------0--------------|---------------2--------L--|--L----------------||
--3-3-3-3-3-------------------|--3s-5-5-5-5---0--------L--|--L----------------||
--1-1-1-1-1----3--------0--0--|--1s-3-3-3-3---------------|-------------------||



==========================================================================

Guitar 2


First lick at intro

E||-------|-------|-------|-------|-------|-------|-------|
B||-------|-------|-------|-------|-------|-------|-------|
G||-------|-------|-------|-------|-------|-------|-------|
D||-------|-------|-------|-------|-------|-------|-------|
A||-------|-------|-------|-------|-------|-------|-------|
E||-------|-------|-------|-------|-------|-------|-------|


                  PM PM PM PM \1/                                          
  S  S S S E  E.  S  S  S  S  E.                                           
----------------------------------|-------|-------|-------|-------|-------|
----------------------------------|-------|-------|-------|-------|-------|
---------------------------2------|-------|-------|-------|-------|-------|
--5s-7-7-7----7------2------------|-------|-------|-------|-------|-------|
--3s-5-5-5----5---0-----0-----3---|-------|-------|-------|-------|-------|
----------------------------------|-------|-------|-------|-------|-------|




SOLO


   E.      S    S S  E.    S    E    S  S E   
---------------------------------------17----|
--20brb---20pb-20---20b---20pb-20b--20-------|
---------------------------------------------|
---------------------------------------------|
---------------------------------------------|
---------------------------------------------|


                        PM            PH                                      
                                                         5 5 5 5 5  5 5 5     
   E.      E   S S  E   T. T. T. T.   Q        H         S S S S T  S S S E   
--------------------------------------------|--------------------------------|
--19pbr---17--------------------------------|--------------------------------|
----------17-------19\--------------<>5b----|-----------------------------5--|
--------------19-x---------------5----------|-------------------------5-7----|
------------------------0--5--7-------------|------------------3-5s-7--------|
--------------------------------------------|--3b--------0-3-5---------------|


             |---5---|                                             
  Q.      S  S S S S S E.   S  S    E   S S S S S S Q       E  E   
---------------------------------|--------------------------------|
---------------------------------|--------------------------------|
--7b------7p-5-------------------|--5\--0-2-0-2-------------------|
---------------7-5----------5s-7-|--------------------------------|
-------------------7-6-----------|--------------------------------|
-----------------------3b--------|--------------3-5-3brb----5--0--|


          |-----5-----|                                           
   Q      S  S  S  S  S  H            H         S S S S T T S E   
-----------------------------------|--------------------------5--|
--19b----17------------------------|--------------------------5--|
------------19-17-14---------------|--7b--------L-5---5-5-5-x----|
---------------------15-17b--------|----------------7------------|
-----------------------------------|-----------------------------|
-----------------------------------|-----------------------------|


  E.   S E   H         E                                                     
----------------------------|-------|-------|-------|-------|-------|-------|
--8b---5-8b--8b--------Lpb--|-------|-------|-------|-------|-------|-------|
----------------------------|-------|-------|-------|-------|-------|-------|
----------------------------|-------|-------|-------|-------|-------|-------|
----------------------------|-------|-------|-------|-------|-------|-------|
----------------------------|-------|-------|-------|-------|-------|-------|






Duration Legend
---------------
W - whole
H - half
Q - quarter
E - 8th
S - 16th
T - 32nd
X - 64th
. - note dotted
|-n-|  - n-tuplets


Tablature Legend
----------------
L - tied note
x - dead note
g - grace note
(n) - ghost note
> - accentuded note
NH - natural harmonic
AH - artificial harmonic
TH - tapped harmonic
SH - semi harmonic
PH - pitch harmonic
h - hammer on
p - pull off
b - bend
br - bendRelease
pb - preBend
pbr - preBendRelease
brb - bendReleaseBend
\n/ - tremolo bar dip
\n - tremolo bar dive
-/n - tremolo bar Release up
/n\ - tremolo bar inverted dip
/n - tremolo bar return
-\n - tremolo bar Release down
S - shift slide
s - legato slide
/ -  slide into from below or out of upwards
\ -  slide into from above or out of downwards
~ - vibrato
W - wide vibrato
tr - trill
TP - tremolo picking
T - tapping
S - slap
P - pop
< - fade in
^ - brush up
v - brush down
comments
We did not receive enough feedback on this tab! Please rate:
print report bad tab
1 2 3 4 5
I want to post or [tab]
guest
You may want to rate the tab now too:
select rating
Please do not post tabs as comments. Select "correction" instead!