Oops, an error
Loading. Please wait.

Painkiller Bass Tab

ver1
ver1

Album

Whole song

More versions @911Tabs.com
4,591 views 3 this week
no commentswrite comment
1 2 3 4 5
excellent!
x 1
add to favorites launch autoscroll
font size
0
reset
Autoscroll
+/-
esc
set tempo
stop
Contributor
Difficulty
advanced
WARNING: You are trying to view
                                    content from Ultimate-Guitar.com
                                    in an unauthorized application,
                                    which is prohibited.

                                    Please use an official Ultimate
                                    Guitar Tabs application for iPhone,
                                    iPad or Android to access legitimate
                                    chords, guitar, bass, and drum tabs
                                    from Ultimate-Guitar.com database.

                                    Type "ultimate guitar tabs" in Apple
                                    App Store's or Android Market's
                                    search to find the application.
Judas priest - Painkiller ALBUM

1. Painkiller
2. Hell patrol
3. All Guns Blazing
4. Leather Rebel
5. Metal Meltdown
6. Nightcrawler
7. Between the Hammer and the Anvil
8. A Touch of Evil
9. Battle Hymn
10. One Shot at Glory


TABLATURE LEGEND
----------------
 h   - hammer-on
 p   - pull-off
 b   - bend
 pb  - pre-bend
 r   - bend release (if no number after the r, then release immediately)
 /\  - slide into or out of (from/to "nowhere")
 s   - legato slide
 S   - shift slide
  - natural harmonic
[n]  - artificial harmonic
n(n) - tapped harmonic
 ~   - vibrato
 tr  - trill
 T   - tap
 TP  - trem. picking
 PM  - palm muting
\n/  - tremolo bar dip; n = amount to dip
 \n  - tremolo bar down
 n/  - tremolo bar up
/n\  - tremolo bar inverted dip
 =   - hold bend; also acts as connecting device for hammers/pulls
 <>  - volume swell (louder/softer)
 x   - on rhythm slash represents muted slash
 o   - on rhythm slash represents single note slash
 |  - bar
||  - double bar
||o - repeat start
o|| - repeat end
*|  - double bar (ending)
 :  - bar (freetime)
 $  - Segno

Tuning : standar E
All songs

1 painkiller

All verses

G---------------------------------|--------------------------------|   X7
D---------------------------------|--------------------------------|
A---------------------------------|--------------------------------|
E-0-0-0-0-0-0-0-0-0-0-0-0-0-0-7-7-0-0-0-0-0-0-0-0-0-0-0-0-0-0-7-7--|

Chorus
G---------------------------------|---------------------------|
D---------------------------------|---------------------------|
A-000000000000000-5-3-2-000000000000000-2-3-5-----------------|
E---------------------------------|---------------------------|

Verse again
Then Chorus

Interlude
G---------------------------------|---------------------------|
D---------------------------------|---------------------------|
A-2-2-2-2-2-2-2-2-2-2-3-3-3-3-3-3-3-3-3-3-2-2-2-2-2-2-2-2-2-2-|
E---------------------------------|---------------------------|

Interlude cont.
G---------------------------------|---------------------------|  X4
D---------------------------------|---------------------------|
A---------------------------------|---------------------------|
E-2222222222222-3-3-2222222222222-5-5-------------------------|

G---------------------------------|---------------------------| X4
D---------------------------------|---------------------------|
A---------------------------------|---------------------------|
E-5555555555555-6-6-5555555555555-7-7-------------------------|

Awesome fast part
G---------------------------------|------------------------------|
D---------------------------------|------------------------------|
A-00000111333333-00013-000001113333333-00013-0-1-3-0-1-3-0-1-3---|
E---------------------------------|------------------------------|

G---------------------------------|---------------------------|
D---------------------------------|---------------------------|
A-013013013013013-----------------|---------------------------|
E---------------------------------|---------------------------|

Solo

G---------------------------------|---------------------------|
D---------------------------------|---------------------------|
A-4-4-4-4-4-4-4-4-4-4-4-4-4-4-4-4-|-4-4-4-4-4-4-4-4-4-4-4-4-2-|
E---------------------------------|---------------------------| X2

G---------------------------------|---------------------------|
D---------------------------------|---------------------------|
A---------------------------------|---------------------------|
E-2-2-2-2-2-2-2-2-2-2-2-2-2-2-2-2-|-2-2-2-2-2-2-2-2-2-2-2-2-0-| X2

G---------------------------------|---------------------------------|
D---------------------------------|---------------------------------|
A-4-4-4-4-4-4-4-4-4-4-4-4-4-4-4-4-|-2-2-2-2-2-2-2-2-2-2-2-2-2-2-2-2-|
E---------------------------------|---------------------------------|
        X3
G---------------------------------|---------------------------------|
D---------------------------------|---------------------------------|
A-0-0-0-0-0-0-0-0-0-0-0-0-0-0-0-0-|-2-2-2-2-2-2-2-2-2-2-2-2-2-2-2-2-|
E---------------------------------|---------------------------------|

G---------------------------------|---------------------------------|
D---------------------------------|---------------------------------|
A-4-4-4-4-4-4-4-4-4-4-4-4-4-4-4-4-|-2-2-2-2-2-2-2-2-2-2-2-2-2-2-2-2-|
E---------------------------------|---------------------------------|

G---------------------------------|-------------|
D---------------------------------|-------------|
A-0-0-0-0-0-0-0-0-0-0-0-0-0-0-0-0-|-----------2-|
E---------------------------------|-4-0-2-3-4---|

G-------------------------------------|---------------------------------|
D-------------------------------------|---------------------------------|
A-----------------------------------0-|---------------------------------|
E-4-4-4-4-4-4-4-4-4-4-4-4-4-4-4-4-2---|-4-4-4-4-4-4-4-4-4-4-4-4-4-4-4-4-| X2

G-----------------------------|---|-----------------|
D-----------------------------|---|---------------2-|
A---------------------------0-|-4-|-5-0-0-------2---|
E-4-4-4-4-4-4-4-4-4-4-4-4-2---|---|-------4-2-4-----|

Verse

Chorus

"Wings of Steel" chorus
G-------------------------------------------------|---------|
D-------------------------------------------------|---2-0---|
A-2-2-2-2-2-2-2-2-2-2-2-2-2-2-2-2-2-2-2-2-2-2-2-2-|-2-----4-|
E-------------------------------------------------|---------|


G-------------------------------------------------|-----------|
D-------------------------------------------------|-----1-2---|
A-2-2-2-2-2-2-2-2-2-2-2-2-2-2-2-2-2-2-2-2-2-2-2-2-|-2-4-------|
E-------------------------------------------------|-----------|

Repeat interlude and "Awesome fast part"

Outro
G---------------------------------|---------------------------|
D---------------------------------|---------------------------|
A---------------2~-------------2~-|---------------------------|
E-0-0-----0-0--------0-0----------|---------------------------|

G---------------------------------|--------------------------------|   X7
D---------------------------------|--------------------------------|
A---------------------------------|--------------------------------|
E-0-0-0-0-0-0-0-0-0-0-0-0-0-0-7-7-0-0-0-0-0-0-0-0-0-0-0-0-0-0-7-7--|

Final Solo
G---------------------------------|-----------------------------|
D---------------------------------|-----------------------------|
A---------------------------------|-----------------------------|
E-2-2-2-2-2-2-2-2-2-2-2-2-2-2-2-2-|-2-2-2-2-2-2-2-2-2-2-2-2-0-3-| X3

G---------------------------------|-----------------------------|
D---------------------------------|-------------------------2-2-|
A---------------------------------|-----------------------------|
E-2-2-2-2-2-2-2-2-2-2-2-2-2-2-2-2-|-2-2-2-2-2-2-2-2-2-2-2-2-----|

"Can't...stop...the...Painkillerrrrrrrrrrrrrrr.....PAIN!"

G-----|---------|---|-|-|-|---|
D-----|---------|---|-|-|-|---|
A-----|---2-0---|---|-|-|-|---|
E-2-2-|-2-----4-|-3~|~|~|~|-2-|

There ya have it. Feel free to comment.

2. Hell patrol
Intro

||-------|-------|-------|-------|-------|-------|-------||-------|-------|
||-------|-------|-------|-------|-------|-------|-------||-------|-------|
||---2---|-0000--|-0000--|---2---|-0000--|-0000--|---5---||---2---|-0000--|
||-------|-------|-------|-------|-------|-------|-------||-------|-------|

 |_______________________________________________________|
       	      |
            X 2

|-------|-------|-------|-------|
|-------|-------|-------|-------|
|-2222--|-3333--|-5555--|-3333--|
|-------|-------|-------|-------|

Verse
     1	      2
 __________________________________
||	  ||
|-------|-------||-------|-------||-------|-------|
|-------|-------||-------|-------||-------|-------|
|---0---|-0002--||--000--|-3-5-2-||--0002-|--000--|
|-------|-------||-------|-------||-------|-------|

|_______|
    |
   X 2

Pre-Chorus

|-------|-------|-------|-------|-------|
|-------|-------|-------|-------|-------|
|---0---|---2---|---3---|---5---|---7---|
|-------|-------|-------|-------|-------|

Chorus
         1	        2
        __________________________
||	  ||
|-------|-------|-------||-------|-------||-------|
|-------|-------|-------||-------|-------||-------|
|---2---|-0000--|-0000--||-2-3-5-|---3---||-2-3---|
|-------|-------|-------||-------|-------||-------|

Fill 1

|-------|-------|-------||-------|
|-------|-------|-------||-------|
|-2222--|-3333--|-5555--||-5555--|
|-------|-------|-------||-------|

|_______|_______|_______||_______|
    |       |       |	     |
   X 4     X 4     X 4	    X 4

Solo Fill

|-------|-------|-------|-------|-------|-------|
|-------|-------|-------|-------|-------|-------|
|--/5---|-7-9-7-|-5-7-9-|--7-5--|-9-7-5-|--9-7--|
|-------|-------|-------|-------|-------|-------|
|_______|
    |
   X 5
Solo 1

Play: Verse, Bridge, Solo Fill, 1st part of Intro and then

|-------|-------|-------|-------|
|-------|-------|-------|-------|
|-2/3/5-|-/7/8/-|-10/12-|--/14--|
|-------|-------|-------|-------|

Fill 2

|-------|-------|-------|
|-------|-------|-------|
|-2/3/5-|-/7/8--|--/2---|
|-------|-------|-------|
Solo 2

Play: 1st part of Fill 1 and Fill 2

Ending

|-------|
|-------|
|--3-2--|
|-------|

PLAY:

Intro
Verse x 3
Pre-Chorus
Chorus
Verse x 3
Pre-Chorus
Chorus
Fill 1
Solo 1
Fill 2
Verse x 2
Fill 2
Verse
Pre-Chorus
Chorus
Solo 2
Ending

3. All Guns Blazing
Intro (riff)

|--------------------------------------------------------------|
|--------------------------------------------------------------|
|----------------------------------------------------3---2--0--| (x3)
|--0-2-2-2-2-2-2-2-3-2-2-2-2-2-2-2-0-2-2-2-3-2-2-2-2-----------|

Verse  riff

|--------------------------------------------------------------|
|--------------------------------------------------------------|
|----------------------------------------------3-3-3-3---3--3--|
|--0-2-2-2-2-2-2-2-3-2-2-2-2-2-2-2-0-0-0-0-0-0-----------------|

|--------------------------------------------------------------|
|--------------------------------------------------------------|
|----------------------------------------------------3---2--0--|
|--0-2-2-2-2-2-2-2-3-2-2-2-2-2-2-2-0-2-2-2-3-2-2-2-2-----------|

|----------------------------------------------------------|
|----------------------------------------------------------|
|----------------------------------------------------------|
|--0-2-2-2-2-2-2-2-3-2-2-2-2-2-2-2-0-0-0-0-0-0-0--0--------|

 Chorus riff 

|--------------------------------------------------------------|
|--------------------------------------------------------------|
|--0-0-0-0-0-0-0-0-1-0-0-0-0-0-0-0---0-0-0-1-0-0-0-------------|
|----------------------------------3---------------3--5--6--5--| (x2)

Solo riff
|--------------------------------------------------------------|
|--------------------------------------------------------------| (x2)
|--2-2-2-3-3-3-2-2-2-0-0-0-3--3--2-2-2-3-3-3-2-2-2-0-0-0-3--3--|
|--------------------------------------------------------------|

|--------------------------------------------------------------|
|--------------------------------------------------------------|
|--------------------------------------------------------------|
|--2-2-2-2-2-2-2-2-2-2-2-2-3--3--2-2-2-2-2-2-2-2-2-2-2-2-3--3--|
  
|----------------------------------------------------------------|
|----------------------------------------------------------------|
|----------------------------------------------------------------|
|--2-2-2-2-2-2-2-2-2-2-2-2-3--3--2-2-2-2-2-2-2-2-2-2-2-2-2-2-2-2-|

|------------------------------------------------------------------|
|------------------------------------------------------------------|
|--4-4-4-4-4-4-4-4-4-4-4-4-4-4-4-4-4-4-4-4-4-4-4-4-4-5-4---4-5-4---|
|--------------------------------------------------------7-------7-|
|                                                                     (x2)
|------------------------------------------------------------------|
|------------------------------------------------------------------|
|--4-4-4-4-4-4-4-4-4-4-4-4-4-4-4-4-4-4-4-4-4-4-4-4-----------------|
|--------------------------------------------------0-L-L-L-3-L-L-L-| 


|--------------------------------------------------------------|
|--------------------------------------------------------------|
|--------------------------------------------------------------|
|--5-5-5-6-6-6-5-5-5-3-3-3-5--5--5-5-5-6-6-6-5-5-5-3-3-3-5--5--|

|------------------------------------------------------|--------------------------------------|
|------------------------------------------------------|--------------------------------------|
|----------------------------------------4-------------|--------------------------------------|
|--5-5-5-6-6-6-5-5-5-3-3-3-5--5--5---6-------6---5--6--|--0--------1--------0--------1--------|

|------------------------------------------|-------------------------------|---------------------|
|------------------------------------------|-----------------3-------------|--3--2---------------|
|------------------------------------------|-------2----5------------------|--------5--7---------|
|--0----1----0----1----0----1----4----1----|--4-------------------0--------|--------------8------|

|--------------------------------------------|--------------------------------------------|
|--------------------------------------------|--------------------------------------------|
|--------------------------------------------|--------------------------------------------|
|--5----L----6-5----L---3--5--6--5--------L--|--5----L----6-5----L---3--5--6--5--------L--| (x4)

REPEAT 
Verse riff
Chorus riff 
Solo riff 

 End riff
|----------------------------------------|-----------------------------------------|
|----------------------------------------|-----------------------------------------|
|----------------------------------------|-----------------------------------------|
|--2--------3-2-------0--2--3--2---------|--2--------3-2-------0--2--3--2----------|

enjoy tab repeat the part and play a good song


4. leather rebel

Intro second guitar

|---------------|-----|--------------|
|---------------|-----|--------------|
|---------------|-----|--------------|
|--0------------|-----|--0-----------|

|--------------|------------|--------------|-----------------------|---------------------|
|--------------|------------|--------------|-----------------------|---------------------|
|-------10--9--|--7---------|--=-----------|-----------------------|----------10--9------|
|--------------|------------|--------------|--3----3----x--5----7--|---------------------|

Verse 1
And main riff

|------------------------------|-------------------------|
|------------------------------|-------------------------|
|------------------------------|-------------------------|
|--0-0-0-0-7--0-0-0--5--0-0-0--|--3--0-0-0--2-----0------|

|------------------------------|-------------------------|------------------------------|
|------------------------------|------------4------------|------------------------------|
|------------------------------|------------------5------|------------------------------|
|--0-0-0-0-7--0-0-0--5--0-0-0--|--3--0-0-0---------------|--0-0-0-0-7--0-0-0--5--0-0-0--|
   
|-------------------------|-----------------------|-------------------|
|-------------------------|-----------------------|-------------------|
|-------------------------|-----------------------|--------10--9------| (x3
|--3--0-0-0--2-----0------|--3----3----x--5----7--|-------------------|


Pre-chorus 
 
|------------------------------|----------------------------|------------------------------|
|--4---------4----------4------|-----4----------4-----4-----|--4---------4----------4------|
|-----2-2-2-----2-2-2-2----2-2-|--2-----2-2-2-2----2-----2--|-----2-2-2-----2-2-2-2----2-2-|
|------------------------------|----------------------------|------------------------------|

|----------------------------|-----------------------------|-----------------------------|
|-----4----------4-----------|-----------------------------|-----------------------------|
|--2-----2-2-2-2----2--------|-----------------------------|-----------------------------|
|----------------------0--0--|--3--3-3-3--3--3-3-3-3-3--3--|--3-3-3-3-3--3--3-3-3-3-3----|

|---------------------|
|---------------------|
|----------------2----|
|--2------0-----------|

Chorus 

|--------------------------------|-------------------------|
|--------------------------------|-------------------------|
|----------7----------2----------|--5----------------------|
|--0-0-0-0----0-0-0-0----0-0-0-0-|-----0-0-0-0-5----8------|

|--------------------------------|--------------------|--------------------------------|
|--------------------------------|--------------------|--------------------------------|
|----------7----------2----------|---------5----------|----------7----------2----------|
|--0-0-0-0----0-0-0-0----0-0-0-0-|--3-----------------|--0-0-0-0----0-0-0-0----0-0-0-0-|

|--------------------------|-----------------------|----------------------|
|--------------------------|-----------------------|----------------------|
|--5-----------------------|-----------------------|-----------10--9------|
|-----0-0-0-0-5S----8------|--5----5---------8--7--|----------------------|


|----------------------|
|----------------------|
|-------5------3-------|
|--3-------------------|

|---------------------|---------------------|---------------------|---------------------|
|---------------------|-------5------3------|---------------------|---------------------|
|--6------5------3----|--L------------------|--6------5------3----|--L----5------6------|
|---------------------|---------------------|---------------------|---------------------|


|---------------------|----------------------|--------------------------|--------------------|
|---------------------|----------------------|--------------------------|-------5------3-----|
|--8------6------5----|------6------5----6-5-|--3--3--------------0--3--|--------------------|
|---------------------|----------------------|--------6--5--6--3--------|--------------------|


  .      
|---------------------|--------------------|-----------------------|--------------------|
|---------------------|------5------3------|-----------------------|--------------------|
|--6------5------3----|--------------------|--6------5----6-5-3----|------5------6------|
|---------------------|--------------------|-----------------------|--------------------|


|--------------------------|-----------------------|---------------------|---------------------|
|--------------------------|-----------------------|---------------------|---------------------|
|--8------6------5---------|------6----6--5----6-5-|---------------------|---------------------|
|--------------------------|-----------------------|--3------3------3----|----3------3----4----|


|---------------------|------------------------|---------------------|----------------------|
|---------------------|------------------------|---------------------|----------------------|
|---------------------|------------------------|--7------7------7----|----7------7--8--8----|
|--3------3------3----|--3--3------3S--4--4----|---------------------|----------------------|

|---------------------|----------------------|
|---------------------|----------------------|
|--7------7------7----|----7------7--8--8----|
|---------------------|----------------------|

*prechorus
* Chorus  riff

|--------------------------------|
|--------------------------------|
|--------------------------------|
|--7----5----3----7----5----3----|

Main riff
&#8230;&#8230;&#8230;&#8230;
|--------------------------|-----------------------|-----------------------|---------|
|--------------------------|-----------------------|-----------------------|---------|
|--------------------------|-----------------------|--10----9----5----9----|--L------|
|--3--0-0-0--2-----0--L----|--3----3----x--5----7--|-----------------------|---------|

|-------------|--------------------------|---------------------|
|-------------|--------------------------|---------------------|
|-------------|--7--7--5--7--(7)S--------|--(x)----------------|
|-------------|--------------------------|---------------------|


5. Metal Meltdown

ntro (x2) 
G|------------------------------------------------------|
D|------------------------------------------------------|
A|------------------------------------------------------|
E|-3/5-5-5-5-5-5-5-5-6-5-5-5-5-5-5-5-6-5-5-5-5-3-3/5-5--|
       

   
G|------------------------------------------------------|
D|------------------------------------------------------|
A|------------------------------------------------------|
E|-3/5-5-5-5-5-5-5-5-6-5-5-5-5-5-5-5-8---7---6~---------|
            


Verse                                    (x4)

G|----------------------------|-----------------------------|
D|----------------------------------------------------------|
A|-2222222222222222-2-2-3\2-2-|-2222222222222222-2--------5-|
E|----------------------------|---------------------2--5----|
  


Pre-chorus
G|-----------------------------------|
D|-----------------------------------|
A|-4---4---4---4---|-7---7---7---7---|
E|-----------------|-----------------|


              
Out of control, about to explode

G|-------------------|
D|-------------------|
A|---10----8---7---3-|
E|-------------------|
It's co - min' at ya


Chorus

G|------------------------------|----------------------------|
D|------------------------------|----------------------------|
A|--------------------7--6---3--|--------------------7--6----|
E|--5----5-----3---5------------|--5----5---0----3-----------|
    Here comes the metal meltdown  Run  for your lives
    Can't stop the metal meltdown  No   one survives

Verse
Pre-chorus
Chorus

Bridge

G|-------------------------------------------|
D|-------------------------------------------|
A|-444444444444444444444444444444-4--5--7--5-|
E|-------------------------------------------|
   Temperature is boiling...


G|-----------------------------------------|---|----------------------------|
D|-----------------------------------------|---|----------------------------|
A|44444444444444444444444444444-4--5--7--5-|---|----------------------------|
E|-----------------------------------------|-2-|-1--321321321321321321321-1-|


Solo backing

G|------------------------------------------------------|
D|------------------------------------------------------|
A|------------------------------------------------------|
E|-3/5-5-5-5-5-5-5-5-6-5-5-5-5-5-5-5-6-5-5-5-5-3-3/5-5--|
      
                                                    (x2)
G|------------------------------------------------------|
D|------------------------------------------------------|
A|------------------------------------7-----6-----3-----|
E|-3/5-5-5-5-5-5-5-5-6-5-5-5-5-5-5-5--------------------|
      


G|------------------------------------------------------|
D|------------------------------------------------------|
A|------------------------------------------------------|
E|-5/7-7-7-7-7-7-7-7-8-7-7-7-7-7-7-7-8-7-7-7-7-5-5/7-7--|
      
                                                    (x2)
G|------------------------------------------------------|
D|------------------------------------------------------|
A|------------------------------------9-----8-----5-----|
E|-5/7-7-7-7-7-7-7-7-8-7-7-7-7-7-7-7--------------------|
       

G|--------------|
D|--------------|
A|----------5---|
E|-2----5-------|


Chorus riff (x6)
then

Coda
G|------------------------------------------------------|
D|------------------------------------------------------|
A|------------------------------------------------------|
E|-5/7-7-7-7-7-7-7-7-7-7-7-7-7-7-7-7-7-7-7-7-7-5-5/7-7--|
  
                                                    (x4)
G|------------------------------------------------------|
D|------------------------------------------------------|
A|------------------------------------------------------|
E|-5/7-7-7-7-7-7-7-7-7-7-7-7-7-7-7-7-10-----9-----8~----|

6 nightcrawler
Intro                                                                            
G|-------------------------|------------------------|------------------------|
D|*--2----------------3----|--2----------------0----|--2---------------------|
A|*------------------------|------------------------|-------------2----------|
E|--------0--0--0--0-------|-------0--0--0--0-------|-------0--0-------0--0--|
 
G|-------------------------|------------------------|------------------------|
D|-------------------------|--2----------------3----|--2----------------0----|
A|--5----------------------|------------------------|------------------------|
E|-------0--0--0--0--0--0--|-------0--0--0--0-------|-------0--0--0--0-------|

G|------------------------|--------2----------2----|
D|--2---------------------|------------------------|
A|-------------2----------|--2--2-------2--2-------|
E|-------0--0-------0--0--|------------------------|

Verse (Play Twice)
G|--------------------------|    |--------------------------|
D|--------------------------| x4 |--------------------------| x2
A|--2--2--2--2--2--2--2--2--|    |--0--0--0--0--0--0--0--0--|
E|--------------------------|    |--------------------------|
 
G|------------------------|------------------------|
D|------------------------|--------------2----2----|
A|--5--4--2----2--2--5----|--2--2--2--2------------|
E|------------------------|------------------------|
 
Pre-Chorus
G|------------------------|-------------------------|
D|------------------------|-------------------------|
A|------------------------|-------------------------|
E|--2----0--0--2----0--0--|--2----0--0--0--2--3--2--|
 
G|------------------------|----------------------|------------------------|
D|------------------------|----------------------|------------------------|
A|------------------------|-------------3--------|------------------------|
E|--2----0--0--2----0--0--|--3--2--0-------------|--2----0--0--2----0--0--|

G|------------------------|------------------------|-------------------------|
D|------------------------|------------------------|-------------------------|
A|------------------------|------------------------|--------------4--2--0----|
E|--2----0--0--0--2--3----|--2----0--0--2----0--0--|--2--2--2--2-------------|

Chorus 
G|--------------------------|--------------------------|
D|--------4--------5--------|--4--------2--------4-----|
A|--2--2-----2--2-----2--2--|-----2--2-----2--2-----2--|
E|--------------------------|--------------------------|
 
G|--------------------------|--------------------------|
D|--------2-----------------|--------------------------|
A|--0--0-----0--0--4--------|--------4-----5-----4-----|
E|--------------------2--2--|--2--2-----2-----2-----2--|
 
G|--------------------------|--------------------------|----------------------|
D|--------4--------5--------|--4--------2--------4-----|--------2--2--2-------|
A|--2--2-----2--2-----2--2--|-----2--2-----2--2-----2--|--0--0-----------4----|
E|--------------------------|--------------------------|----------------------|

G|------------------------|----------------------|----------------------|
D|------------------------|--2----------3--------|--2----------0--------|
A|--------4-----5--4------|----------------------|----------------------|
E|--2--2-----2------------|-------0--0-----------|-------0--0-----------|
                                                                  
G|----------------------|-------------------|----------------------|
D|--2-------------------|--0----------------|--2----------3--------|
A|-------------2--------|-------------------|----------------------|
E|-------0--0-----------|-------------------|-------0--0-----------|
                                                                       
G|----------------------|----------------------|--------2----------2----|
D|--2----------0--------|--2-------------------|------------------------|
A|----------------------|-------------2--------|--2--2-------2--2-------|
E|-------0--0-----------|-------0--0-----------|------------------------|

Play Verse x 2
Pre-Chorus
Chorus

Solo                                                             
G|--------------------------|    |---------------------------|
D|--------------------------| x4 |*-------------------------*|
A|--2--2--2--2--2--2--2--2--|    |*--0--0--0--0--0--0--0--0-*|
E|--------------------------|    |---------------------------|

G|--------------------------| |--------------------------|  
D|--------------------------| |--------------------------| x5
A|--5--4--2--2--2--2--2--2--| |--2--2--2--2--2--2--2--2--|
E|--------------------------| |--------------------------|

G|---------------------------|
D|*-------------------------*|
A|*--0--0--0--0--0--0--0--0-*|
E|---------------------------|
 
G|--------------------------|--------------------------|
D|--------------------------|--------------------------|
A|--------------------------|--0--0--0--0--0--0--0--0--|
E|--3--3--3--3--3--3--3--3--|--------------------------|
 
G|---------------------|--------------------------|
D|*-------------------*|--------------------------| x5
A|*--5--4--2----------*|--2--2--2--2--2--2--2--2--|
E|---------------------|--------------------------|

G|--------------------------|
D|*------------------------*|
A|*------------------------*|
E|--3--3--3--3--3--3--3--3--|
 
G|--------------------------|--------------------------|
D|--------------------------|--------------------------|
A|--------------------------|--------------------------|
E|--0--0--0--0--0--0--0--0--|--2--2--2--2--2--2--2--2--|

G|--------------------------|----------------------------| 
D|--------------------------|*--------------------------*|
A|--------------------------|*--0--0--0--0--0--0--0--0--*|
E|--3--3--3--3--3--3--3--3--|----------------------------|

G|--------------------------|
D|*------------------------*|
A|*------------------------*|
E|--2--2--2--2--2--2--2--2--|

G|-------------------|-------------------------|------------------------|
D|-------------------|*------------------------|------------------------|
A|-------------------|*------------------------|------------------------|
E|--2----------------|--2----0--0--2----0--0---|--2----0--0--0--2--3----|
 
G|------------------------|-----------------------|
D|------------------------|----------------------*|
A|------------------------|-------------3--------*|
E|--2----0--0--2----0--0--|--3--2--0--------------|
 
G|------------------------|-------------------|
D|------------------------|-------------------|
A|-------------3--2--0----|--2----------------|
E|--3--2--0---------------|-------------------|
 
G|-------------------------|------------------------|------------------------|
D|*--2----------------3----|--2----------------0----|--2---------------------|
A|*------------------------|------------------------|-------------2----------|
E|--------0--0--0--0-------|-------0--0--0--0-------|-------0--0-------0--0--|
 
G|--------------------|
D|--0----------------*|
A|-------------------*|
E|--------------------|

Pre-Chorus
Chorus x 2 (Don't play intro like riff)

Outro 
G|------------------------|------------------------|------------------------|
D|--2----------------3----|--2----------------0----|--2---------------------|
A|------------------------|------------------------|-------------------2----|
E|-------0--0--0--0-------|-------0--0--0--0-------|-------0--0--0--0-------|

G|-------------------| x9
D|--0----------------|
A|-------------------|
E|-------------------|


 7. Between the Hammer and the Anvil
main riff

|--------------------------------------|--------------------------------------|
|--------------------------------------|--------------------------------------|
|--0--0--0--0--0--0--0--0--0--0--0--0--|--------------------------------------|
|--------------------------------------|--2--2--2--2--2--2--2--2--2--2--2--2--|

|------------------------------------|--------------------------------------|---------------------|
|------------------------------------|--------------------------------------|---------------------|
|3--3--3--3--3--3--3--3--3--3--3--3--|--------------------------------------|---------------------|
|------------------------------------|--2--2--2--2--2--2--2--2--2--2--2--2--|--0--0--0--0--0--0--0|

Intro riff

|------------------------|--------------------------|---------------------|
|------------------------|--------------------------|---------------------|
|----------------5~------|--------------------------|-----5----5----------|  (x2)
|--0--0--0--0------------|--0--0--0--0--0--0--0--0--|--L------------------|

Verse  1 and 2 riff

|---------------------------|------------------------|
|---------------------------|------------------------|
|---------------------------|----------------5~------|
|--0--0--0--0--0--0--0--0--|--0--0--0--0------------|

|--------------------------|-----------------------|
|--------------------------|-----------------------|
|--3--3--3--3--3--3--3--3--|--3--3--3--3----5------|            (x4)
|--------------------------|-----------------------|

Prechorus riff
           Silent          chorus:
|-------------------|---------------------|-------------------|---------------------|
|-------------------|---------------------|-------------------|-------2------1------|
|--3----------------|--0------0------2----|-------------------|---------------------|
|-------------------|---------------------|-------------------|--0------------------|

|-----------------------|---------------------|-----------------------|
|-----------------------|-------5------4------|--1------0-------------|
|--3------2----0--------|---------------------|--------------0--------|
|-----------------3--2--|--0------------------|-----------------3--2--|


Outro riff

|--------------------------|--------------------------|
|--------------------------|--------------------------|
|--------------------------|--------------------------|
|--0--3--2--0--3--2--3--2--|--0--3--2--0--3--2--3--4--|

*main riff (x4)


Solo kk riff(riff verse)

Solo glenn tipton riff

|-----------------------|-------------------|-------------------|------------------|--------------|
|-----------------------|-------------------|-------------------|------------------|--------------|
|--3--3--3--3----5------|--3----------------|--=----------------|--1---------------|--=-----------|
|-----------------------|-------------------|-------------------|------------------|--------------|

|-------------------|---------------------|-------------------|------------------|----------------|
|-------------------|---------------------|-------------------|------------------|----------------|
|-------------------|-----------3---------|-------------------|------------------|----------------|
|--3----------------|--=-------------3----|--4----------------|--=---------------|--1-------------|

|---------------------|-------------------|-------------------|------------------|----------------|
|---------------------|-------------------|-------------------|------------------|----------------|
|----------------0----|-------------------|-------------------|------------------|----------------|
|--=--------3---------|--3----------------|--=----------------|--3---------------|--=-------------|

|-----------------------|-------------------|-------------------|------------------|-------------|
|------------1--0-------|-------------------|-------------------|------------------|-------------|
|--3-----------------2--|--3----------------|-------------------|------------------|-------------|
|-----------------------|-------------------|-------------------|------------------|-------------|


verse 3 riff
same  riff verse 1 and 2
prechorus
chorus
the end riff

|--------------------------|----------------------|----------------------|
|--------------------------|----------------------|----------------------|
|--------------------------|--5------5----3----3--|--=--0----2--------=--|
|--0--0--0--0--0--0--0--0--|----------------------|----------------------|

|---------------------|------------------|
|------------------0--|--2---------------|
|--=------------=-----|------------------|
|---------------------|------------------|

ths song was made in guitar pro y only put the tab for all the bassis and the  fans of 
priest enjoy and play


8. A Touch of Evil

Tabbed By : Nick Johnson 

  Verse
G|-------------|
D|-------------|
A|-------------|
E|-3-3-3-3-3---|

  Pre-Chorus
G|------------|   |-------------|
D|------------|   |-------------|
A|--3-3-3-3-3-|x2 |-------------| x2
E|------------|   |--3-3-3-3-3--|

  Chorus
G|-----------------|
D|-----------------|
A|----3-8----7-3-5-|
E|-0---------------|

  Bridge and solo
G|-------------------------------|
D|-----9------9-------10------10-|
A|-7-7----7-7-----8-8-----8-8----|
E|-------------------------------|

  Post Solo
G|---------------|-----------------|
D|---------------|-----------------|
A|-3-------5-----|-5-3-------------|
E|-----------0---|------------5-7--|


 9. Battle Hymn
  
G||-------------------|---------------|-------------------|-------------------|-------------------|
D||-------------------|---------------|-------------------|-------------------|-------------------|
A||-------------------|---------------|--2----2--2--2--2--|--2----2--2--2--2--|--2----2--2--2--2--|
E||-------------------|---------------|-------------------|-------------------|-------------------|

|-------------------|--------------|-----------------|------------|--------------|---------------|
|-------------------|--------------|-----------------|------------|--------------|---------------|
|--2----2--2--2--2--|--0----0----0-|--0----0----0----|--5---------|--5-----------|---------------|
|-------------------|--------------|-----------------|------------|--------------|--3------------|

|----------------|-----------------|-----------------|----------------|-----------|--------------|
|----------------|-----------------|-----------------|----------------|-----------|--------------|
|----------------|-----------------|-----------------|----------------|-----------|--------------|
|--3----------3--|--3----3----3----|--3----3----3----|--2----2--------|-----------|--2----2------|

10. One Shot at Glory

|----------------------|
|----------------------|
|----------------------|
|--3--2------3--5------|

Main riff 
verse and intro
|--------------------------|--------------------------|--------------------------|
|--------------------------|--------------------------|--------------------------|
|--2--2--2--2--2--2--2--2--|--2--2--2--2--2--------5--|--2--2--2--2--2--2--2--2--|
|--------------------------|-----------------2--5-----|--------------------------|
  
|------------------------|                      |----------------------|
|------------------------|                      |----------------------|
|------------------------| (x6)                 |--------5-----4-------|
|--3p--2------3h--5------| before the prechorus |----3-----3-----5-----|

Prechorus

|--------------------------|--------------------------|--------------------------|
|--------------------------|--------------------------|--------------------------|
|--1---1-1--1--1---1-1--1--|--1---1-1--1--1---1-1--1--|--------------------------|
|--------------------------|--------------------------|--3---3-3--3--3---3-3--3--|

|------------------------------|--------------------------|--------------------------|
|---------------3g5------------|--------------------------|--------------------------|
|--------------------5---------|--0---0-0--0--0---0-0--0--|--0---0-0--0--0---0-0-----|
|--3---3-3--3/----------6p--3--|--------------------------|-----------------------0--|

|-----------------------|----------------------|
|--7\-------------------|--7\------------------|
|-----------0------0----|-----------0------0---|
|-----------------------|----------------------|

chorus

main riff  repeat  the next part afther the nexts riffs
|------------------------------|--------------------------------|------------------------------|
|------------------------------|--------------------------------|------------------------------|
|--2--2-2-2--2-2-2--2-2-2--2-2-|--2--2-2-2--2-2-2-2-2-2-2-2-2-2-|--5--5-5-5--5-5-5--5-5-5--5-5-|
|------------------------------|--------------------------------|------------------------------|
*
|---------------------------|
|---------------------------|
|--0--0-0-0--0--------------|
|---------------3/--5----5--|
*
|-------------------------------|
|-------------------------------|
|--0--0-0-0--0--5-4-2-0-5-4-2-0-|
|-------------------------------|
*
|---------------------------|
|---------------------------|
|--0--0-0-0--0--------------|
|---------------3/--5----5--|

*
|-----------------------------|
|-----------------------------|
|--0--0-0-0--0-0-------4------|
|----------------0--5-----5/--|
comments
We did not receive enough feedback on this tab! Please rate:
print report bad tab
1 2 3 4 5
I want to post or [tab]
guest
You may want to rate the tab now too:
select rating
Please do not post tabs as comments. Select "correction" instead!