Oops, an error
Loading. Please wait.

Painkiller Tab

ver2
ver2
More versions @911Tabs.com
23,277 views 6 this week
5 commentsread comments
1 2 3 4 5
accurate
x 14
Autoscroll
+/-
esc
set tempo
stop
Contributor
Hey! There's an official Ultimate Guitar app which is ideal
for learning songs when you're away from computer. Get the app
WARNING: You are trying to view
                                    content from Ultimate-Guitar.com
                                    in an unauthorized application,
                                    which is prohibited.

                                    Please use an official Ultimate
                                    Guitar Tabs application for iPhone,
                                    iPad or Android to access legitimate
                                    chords, guitar, bass, and drum tabs
                                    from Ultimate-Guitar.com database.

                                    Type "ultimate guitar tabs" in Apple
                                    App Store's or Android Market's
                                    search to find the application.
Gtr I (E A D G B E) - 'Glen Tipton - Rhythm w/dist'
Gtr II (E A D G B E) - 'K.K. Downin - Rhythm w/dist'
Gtr III (E A D G B E) - 'Glen Downing - Lead w/dist'
Gtr IV (E A D G B E) - 'K.K. Downing - Lead w/dist'

Intro
 4/4
             Gtr III
  Wx7          E S S a     +Q    +Q     Q
|------------|-----------------------------|
|------------|-----------------------------|
|------------|-------4b6==([4])--(4)r\-----|
|------------|--------------------------2--|
|------------|-----------------------------|
|------------|---x-x-----------------------|


    Q=106
    Gtrs I, II
    S S S S S S S S S S S S S S S S   S S S S S S S S S S S S S S E
||----------------------------------|--------------------------------||
||o---------------------------------|-------------------------------o||
||----------------------------------|-------------------------3-3-3--||
||--2-----0-----2-----3-----2p0-----|-2-----------2-----3-----3-3-3--||
||o---------------------------------|-------5-----------------1-1-1-o||
||----0-0---0-0---0-0---0-0-----3p0-|---0-0---0-0---0-0---0-0--------||
 |-Rhy Fig 1                                           end Rhy Fig 1-|

   Verses
    $
    S S S S S S S S S S S S S S S S   S S S S S S S S S S S S S S E
||----------------------------------|-------------------------------|
||o---------------------------------|-------------------------------|
||----------------------------------|-------------------------3-3-3-|
||--2-----0-----2-----3-----2p0-----|-2-----------2-----3-----3-3-3-|
||o---------------------------------|-------5-----------------1-1-1-|
||----0-0---0-0---0-0---0-0-----3p0-|---0-0---0-0---0-0---0-0-------|


w/Rhy Fig 1 x3
  Gtr III (1st and 2nd time only)
  W                                 H                E        +E     +Q
|---------------------------------|-----------------21b23====(21)r==(21)-----|
|---------------------------------|------------------------------------------|
|---------------------------------|------------------------------------------|
|---------------------------------|------------------------------------------|
|---------------------------------|------------------------------------------|
|---------------------------------|------------------------------------------|


    ~~~~~~~~~~~~~~~~~~~~~~~~~~~~~~~~~~~~~
   +H.                        +E    +E       W
|-(21)-----------------------(21)--(21)\---|-------------------------------|
|------------------------------------------|-------------------------------|
|------------------------------------------|-------------------------------|
|------------------------------------------|-------------------------------|
|------------------------------------------|-------------------------------|
|------------------------------------------|-------------------------------|


                                  |-on D.S. only
  W                                 E    Q.            +H
|---------------------------------|-----15------------(15)\-------------||
|---------------------------------|-------------------------------------||
|---------------------------------|-------------------------------------||
|---------------------------------|-------------------------------------||
|---------------------------------|-------------------------------------||
|---------------------------------|-------------------------------------||



 Chorus
  Gtrs I, II
  |----6----| |----6----| |----6----| |----6----|
  S S S S S S S S S S S S S S S S S S S S S S S S   Q  Q  Q  Q
|-------------------------------------------------|-------------|
|-------------------------------------------------|-------------|
|-------------------------------------------------|-2--7--5--4--|
|-------------------------------------------------|-2--7--5--4--|
|-0-0-0-0-0-0-0-0-0-0-0-0-0-0-0-0-0-0-0-0-0-0-0-0-|-0--5--3--2--|
|-------------------------------------------------|-------------|


                                                        To Coda
  |----6----| |----6----| |----6----| |----6----|
  S S S S S S S S S S S S S S S S S S S S S S S S   Q  Q  Q  Q
|-------------------------------------------------|--------------||
|-------------------------------------------------|-------------o||
|-------------------------------------------------|-2--4--5--7---||
|-------------------------------------------------|-2--4--5--7---||
|-0-0-0-0-0-0-0-0-0-0-0-0-0-0-0-0-0-0-0-0-0-0-0-0-|-0--2--3--5--o||
|-------------------------------------------------|--------------||


    S S S S S S S S S S S S S S S S   S S S S S S S S S S S S S S E  4x
||----------------------------------|--------------------------------||
||o---------------------------------|-------------------------------o||
||--------------------5-----4-------|-----------------5-----5--------||
||--4-----5-----4---------------4h5-|-4-----5-----4h5-------------5--||
||o---2-2---2-2---2-2---2-2---2-----|---2-2---2-2-------3-3---3-3---o||
||----------------------------------|--------------------------------||
 |-Rhy Fig 2                                           end Rhy Fig 2-|

   Verse
    |----6----| |----6----| |----6----|
    S S S S S S S S S S S S S S S S S S Q
||-----------------------------------------|
||o----------------------------------------|
||-----------------------------------------|
||-----------------------------------------|
||o-------------------------------------5--|
||--2-2-2-2-2-2-2-2-2-2-2-2-2-2-2-2-2-2-3--|


  |----6----| |----6----| |----6----|
  S S S S S S S S S S S S S S S S S S E E
|--------------------------------------------||
|-------------------------------------------o||
|--------------------------------------------||
|--------------------------------------------||
|-------------------------------------5-7---o||
|-2-2-2-2-2-2-2-2-2-2-2-2-2-2-2-2-2-2-3-5----||


    |----6----| |----6----| |----6----|
    S S S S S S S S S S S S S S S S S S Q
||-----------------------------------------|
||o----------------------------------------|
||-----------------------------------------|
||-----------------------------------------|
||o-0-0-0-0-0-0-0-0-0-0-0-0-0-0-0-0-0-0-8--|
||--------------------------------------6--|


  |----6----| |----6----| |----6----|
  S S S S S S S S S S S S S S S S S S E  E
|---------------------------------------------||
|--------------------------------------------o||
|---------------------------------------------||
|---------------------------------------------||
|-0-0-0-0-0-0-0-0-0-0-0-0-0-0-0-0-0-0-8-10---o||
|-------------------------------------6--8----||


  |-3--|               |-3--|
  Q Q  Q  +E  E E  E   Q Q  Q  +E  E E  E
|--------------------|--------------------|
|--------------------|--------------------|
|--------------------|--------------------|
|--------------------|--------------------|
|-7-8-10-(10)-7-8-10-|-7-8-10-(10)-7-8-10-|
|-5-6--8--(8)-5-6--8-|-5-6--8--(8)-5-6--8-|


  |-3-| |-3-| |-3-| |-3-|   |----6----| |----6----| |----6----| |----6----|
  E E E E E E E E E E E E   S S S S S S S S S S S S S S S S S S S S S S S S
|-------------------------|-------------------------------------------------||
|-------------------------|-------------------------------------------------||
|-------------------------|-------------------------------------------------||
|-------------------------|-------------------------------------------------||
|-------------------------|-------------------------------------------------||
|-5-6-8-5-6-8-5-6-8-5-6-8-|-5h6h8-5h6h8-5h6h8-5h6h8-5h6h8-5h6h8-5h6h8-5h6h8-||


 Guitar Solo
 6/4
  Gtr III
   |--3--|         |-------6--------|  |--3--|              |-3--| |------6------|
   S  S  S  T  S.  S  S   S   S  S  S  S  S  S  S  S  S  S  S  S S S S  S  S  S  S  S  S  S  S
|----------------------------14h17p14----------14h17-14h17---------xSx-14-17-17-14--------------|
|-------14--------------(14)-------------14----------------14----------------------15-----------|
|----14----14-14-----14---------------------14----------------14--------------------------------|
|-16--------------16------------------16-------------------------x--------------------12-12-11--|
|-----------------------------------------------------------------------------------------------|
|-----------------------------------------------------------------------------------------------|


 4/4
  Gtr III
                                                          \1
                                            ~~
   +Q.            E    E.    S  E.     S    H             H
|----------------------------------------|-------------------------------|
|----------------------------------------|-------------------------------|
|----------------------------------------|-------------------------------|
|-(11)-----------12---11----12-11------9-|-11-------------0--------------|
|----------------------------------------|-------------------------------|
|----------------------------------------|-------------------------------|
|
| Gtrs I, II
|   |-3--| |---3----|                       |-3-| |--3--|
|   E  E E S S E    E  S  E  S  S  S S S    E E E S S E E S  E S S S S S
|----------------------------------------|-------------------------------|
|----------------------------------------|-------------------------------|
|---6---------------6-----7--------4-----|--6-----------6----7-----4-----|
|---6------7p6------6-----7-----7----7p4-|--6-----7p6---6----7---7---7p4-|
|------4-4-----4-------5-----5-----------|----4-4-----4---5----5---------|
|----------------------------------------|-------------------------------|


   Q.               +E     +E.        +S   +E.      S
|-----------------------------------------------------|
|-14b15============(14)r==(14)b15====(14)r(14)-----12-|
|-----------------------------------------------------|
|-----------------------------------------------------|
|-----------------------------------------------------|
|-----------------------------------------------------|
|
|  |---3---| |----3-----|
|  E     E E S S E      E   S      E   S    S  S S  S
|-----------------------------------------------------|
|-----------------------------------------------------|
|--6--------------------6----------7-----------4------|
|--6---------7p6--------6----------7--------7----7p=4-|
|--------4-4-----4----------5----------5--------------|
|-----------------------------------------------------|


   ~~~~~~~~~~
   Q      Q        E     Q.
|-------------------------------------|
|-14-----14---------------------------|
|-----------------[6]---/4\-----------|
|-------------------------------------|
|-------------------------------------|
|-------------------------------------|
|
|  |-3-|  |--3--|
|  E E E  S S E E  S  E     S S S S S
|-------------------------------------|
|-------------------------------------|
|--6------------6-----7---------4-----|
|--6------7p6---6-----7-------7---7p4-|
|----4-4------4----5--------5---------|
|-------------------------------------|


  S S S S S S S S S S S S E   S S   S S S S S S S S S S S S S S S S
|---------------------------------|---------------------------------|
|---------------------------------|-2-----3-----2-------------------|
|-2-----4-----2---------------2-4-|-------------------4-----2---1---|
|---4-4---4-4---4-4-4-2-3-4-------|---4-4---4-4---4-4---4-4---4---4-|
|---------------------------------|---------------------------------|
|---------------------------------|---------------------------------|
|
| S S S S S S S S S S S S S S S S   S S S S S S S S S S S S Q
|---------------------------------|---------------------------------|
|---------------------------------|---------------------------------|
|---------------------------------|---------------------------------|
|---------------------------------|---------------------------------|
|-4-----5-----4-----5-----4---5---|-4-----5-----4-----5-----2-------|
|---2-2---2-2---2-2---2-2---2---2-|---2-2---2-2---2-2---2-2-0-------|
|-Rhy Fig 3                                           end Rhy Fig 3-|

w/Rhy Fig 3 x3
  S S S  S  S S  S  S S  S  S S S S S S
|---------------------------------------|
|---------------[2]-----[2]-------------|
|-2-----[4]-------------------------2-4-|
|---4-4-----4-4-----4-4-----4-3-4-2-----|
|---------------------------------------|
|---------------------------------------|


                               |-3-|
  S S S S +S  S T T T T T T S  S T S.  S      +T   +T       +E
|-----------------------------/xSxSx\-17b18==(17)r(17)b18==(17)r--|
|-2-----3-(3)---------2-3p2---------------------------------------|
|-----------------2-4-------4-------------------------------------|
|---4-4-------4-4-------------------------------------------------|
|-----------------------------------------------------------------|
|-----------------------------------------------------------------|


           ~~~~~                ~~
                                                 |---3---|
   a      +Q.             S  S  Q        +E      S  S    S
|-17b18==(17)r-----------14-17-14-------(14)\--------------|
|-------------------------------------------------------14-|
|--------------------------------------------------14------|
|-----------------------------------------------16---------|
|----------------------------------------------------------|
|----------------------------------------------------------|


                                                             \1/    \1/    \1/
          |--------3-------|          |---------3--------|    |------3------|
   a      E    a      E    E   a      E     a      E     E    E      E      E      S  E.
|--------14----------14--------------14-----------14---------12-----12-----12--------------|
|-17b19=(17)r-17b19=(17)r-14--17b19=(17)r--17b19=(17)r--14------------------------17-------|
|------------------------------------------------------------------------------------11S===|
|------------------------------------------------------------------------------------------|
|------------------------------------------------------------------------------------------|
|------------------------------------------------------------------------------------------|

                                       |------------6------------|
   S  S  S  S  S  S  S  S  S  S  S  S  S  S    S      +S    S    S
|-------------12-12-------14-14-------14-14----------------14---14-|
|----14----12-------12S14-------12S14---------17b19==(17)r---------|
|-14----12---------------------------------------------------------|
|------------------------------------------------------------------|
|------------------------------------------------------------------|
|------------------------------------------------------------------|


   T  T  S  T  T  S  T  T  S  T  S.    Q.          +E
|---------------------------------------------------------|
|-19-19-14-19-19-14---------------------------------------|
|-------------------18-18-14-18-14------------------------|
|-------------------------------------16----------(16)\---|
|---------------------------------------------------------|
|---------------------------------------------------------||

   ~~~                 ~~
   Q.            E     Q        a      +Q
|---------------------21-------21b24==(21)r---|
|---------------------------------------------|
|---------------------------------------------|
|-11------------11/---------------------------|
|---------------------------------------------|
|---------------------------------------------|
|
|  S  S S S S S  S  S  S S S S          E   E
|---------------------------------------------|
|---------------------------------------------|
|---------------------------------------------|
|---------------------------------------6---6-|
|--4--4-4-4-4-4--4--4--4-4-4-4----------4---4-|
|---------------------------------------------|
|-Rhy Fig 4

   a      +Q.             E    Q        +Q
|-21b23==(21)r-----------21---19-------(19)\---|
|----------------------------------------------|
|----------------------------------------------|
|----------------------------------------------|
|----------------------------------------------|
|----------------------------------------------|
|
|          S   S S S S S  S S  S S S S   E   E
|----------------------------------------------|
|----------------------------------------------|
|----------------------------------------------|
|----------------------------------------4---4-|
|----------2---2-2-2-2-2--2-2--2-2-2-2---2---2-|
|----------------------------------------------|
                                 end Rhy Fig 4-|

                                                                    T
                              |---3---|              |------6-------|
   S  S  S  S  S  S  S  T  T  S  S    S  T  T  T  T  S  S  S  S  S  S
|----------------------16h17---------------------------------------16p=|
|----16-17-19-16-17-19-------21p19p==17-19p17p16----16-19-17-16--------|
|-18---------------------------------------------18-------------18-----|
|----------------------------------------------------------------------|
|----------------------------------------------------------------------|
|----------------------------------------------------------------------|
|
|  S  S  S  S  S  S  S  S     S    S     S     S     E        E
|----------------------------------------------------------------------|
|----------------------------------------------------------------------|
|----------------------------------------------------------------------|
|----------------------------------------------------2--------2--------|
|--0--0--0--0--0--0--0--0-----0----0-----0-----0-----0--------0--------|
|----------------------------------------------------------------------|
|-Rhy Fig 5

     T    T           T     T    T        T                                ~~
  |---3---|              |---3---|
  S  S    S  T  T  T  T  S  S    S  T  T  T  T   T  T  T   T   T  T  T  T  Q
|-9h16S==21p14h16p14-16h19p16S==21-14-16-16-------------------16h19p16---------|
|--------------------------------------------------------(17)----------17------|
|-------------------------------------------18\-------18------------------16---|
|--------------------------------------------------18--------------------------|
|-----------------------------------------------16-----------------------------|
|------------------------------------------------------------------------------|
|
| S    S     S     S     S    S     S     S      S     S       S     S     E E
|------------------------------------------------------------------------------|
|------------------------------------------------------------------------------|
|------------------------------------------------------------------------------|
|------------------------------------------------------------------------------|
|-2----2-----2-----2-----2----2-----2-----2------2-----2-------2-----2-----2-2-|
|--------------------------------------------------------------------------0-0-|
                                                                end Rhy Fig 5-|

w/Rhy Fig 4
           ~~~~~~~~~~~~~~~~~~~~~~
   a      +H                   H
|-21b23==(21)r\---------------21-----------|
|------------------------------------------|
|------------------------------------------|
|------------------------------------------|
|------------------------------------------|
|------------------------------------------|


  |---------3---------|    |----3----|    |----3----|
  E    a      +E      E    E    E    E    E    E    E    +E   E
|-----19b21==(19)r---19---16-------------------------------------|
|-0----------------------------17--------------------------------|
|-----------------------------------18---19----------------------|
|---------------------------------------------14---19---(19)\----|
|-------------------------------------------------------------7--|
|----------------------------------------------------------------|

w/Rhy Fig 5
  S E.     T T T T T T T T  S S  S  S  S  T  T  T  T  T  T
|----------------------------------------------------------|
|----------------------------------------------------------|
|----------------------------------------------------------|
|----------------------------------------14-14-16-16-18-18-|
|-6--------------------7-9S11-9-11S16-16-------------------|
|---9------7-7-9-9-7-9-------------------------------------|


                           |--3--|              |------6-------|  |---3-|        |-----5-----|
   T  T  S  T  T  T  T  S  T  T  T  T  T  T  T  T  T  T  T  T  T  S  S  S  S  S  T  T  T  T  T
|-------------------------------17-------------------------------19-14-19-14-16-19-19-20-21-19--|
|-------------------------17-19----19-19-20-20-19-19-19-19-19-19--------------------------------|
|-------------------16-18-----------------------------------------------------------------------|
|-17p16----16-17-18-----------------------------------------------------------------------------|
|-------19--------------------------------------------------------------------------------------|
|-----------------------------------------------------------------------------------------------|

w/Rhy Fig 4
           T          T          T                   T          T        T
   |--------6---------|  |---3---|           |--------6---------|  |--3--|
   S  S    S  S  S    S  S  S    S  T  S.    S  S    S  S  S    S  S  S  S  T  S.
|------------14h17---21p17p14--------------------------14h17---21p17p14-----------|
|-14h17---21--------------------21p17p14----14h17---21------------------21p17p14--|
|---------------------------------------------------------------------------------|
|---------------------------------------------------------------------------------|
|---------------------------------------------------------------------------------|
|---------------------------------------------------------------------------------|


           T          T          T          ~~~~~~~~~~
   |--------6---------|  |---3---|
   S  S    S  S  S    S  S  S    S  T  S.   Q       Q
|-------------------------------------------------------|
|-------------------------------------------------------|
|------------11-14---18p14p11---------------------------|
|-11-14---18--------------------18p14p11----------------|
|-------------------------------------------------------|
|-------------------------------------------9-------9---|

w/Rhy Fig 5
                            PM|
   a      +Q.            S  S  S  S S  S  S  S  S S
|-----------------------------------------------------|
|-----------------------------------------------------|
|-11b13==(11)r-----------9----11----9-11-12-11-11-9---|
|--------------------------11----11-------------------|
|-----------------------------------------------------|
|-----------------------------------------------------|

                                  |-w/Rhy Fig 4
                      ~~~~~~~~~~~~~~~~~~~~~~~~~~~~~~~~~~~               ~~~~~
   S  S S S  S  S E   Q       Q      Q        Q        Q        a      +Q
|---------------------------------|-21-------21-------21-------21b24==(21)r==|
|-[9]---9---[9]-------------------|------------------------------------------|
|-----9---9-----9-8---8-------8---|------------------------------------------|
|---------------------------------|------------------------------------------|
|---------------------------------|------------------------------------------|
|---------------------------------|------------------------------------------|


                                          ~~~~~~~~~~~~~~~~~~~~~~~~~~~~~~~~~
   +S       +S   +S       +S     a       +Q          Q            Q
|-(21)b24==(21)r(21)b24==(21)r-(21)b26==(21)r-------21pb24-------21pb24---|
|-------------------------------------------------------------------------|
|-------------------------------------------------------------------------|
|-------------------------------------------------------------------------|
|-------------------------------------------------------------------------|
|-------------------------------------------------------------------------|



 ~~~~
   Q       E    E    E    E   E  E
|-21-------x\----------------------|
|--------------------4S==11S==9S17-|
|---------------x\---4S==11S==9S17-|
|----------------------------------|
|----------------------------------|
|----------------------------------|
|
|  S S S S S  S S  S S S  S S E  E
|----------------------------------|
|----------------------------------|
|----------------------------------|
|-----------------------------2--2-|
|--0-0-0-0-0--0-0--0-0-0--0-0-0--0-|
|----------------------------------|


   ~~
   H        a      +Q      +Q
|-20-------21b24==(21)r===(21)\--||
|----------21b24==(21)r===(21)\--||
|--------------------------------||
|--------------------------------||
|--------------------------------||
|--------------------------------||
|
|  E E E E          E  Q.
|--------------------------------||
|--------------------------------||
|--------------------------------||
|--------------------------------||
|----------------------2---------||
|--4-0-2-3----------4------------||


           ~~~~~                 ~~
   a      +Q         +Q          H
|-------------------------------16-------------|
|----------------------------------------------|
|----------------------------------------------|
|----------------------------------------------|
|-14b15==(14)r======(14)\----------------------|
|----------------------------------------------|
|
|          S  S S S   S   S S S  S E S S S S S
|----------------------------------------------|
|----------------------------------------------|
|----------4------6---------4--------------4-6-|
|-------------6-6-----6---6---6--4-6-4-6-------|
|----------------------------------------6-----|
|----------------------------------------------|


                        ~~~~~~~
  E     E    S    S  S  S  +H
|-----------19\-----19S16-(16)--------|
|-------------------------------------|
|-----/16-------/16-------------------|
|-------------------------------------|
|-------------------------------------|
|-------------------------------------|
|
| S S   S S  S    S  E      S  E. E E
|-------------------------------------|
|-4-------5-------4--4----------------|
|------------6-----------------6----2-|
|---6---6-------------------6-----4-2-|
|---------------------------------4-0-|
|---------------------------------2---|


                                  ~~~~~~~~~~~~~~~~
  W                               H             H
|-------------------------------|------------------------|
|-------------------------------|------------------------|
|-------------------------------|-4-------------4--------|
|-------------------------------|------------------------|
|-------------------------------|------------------------|
|-------------------------------|------------------------|
|
| S S S S S S S S S E S S S S S   S S S S S S E S E. E E
|-------------------------------|------------------------|
|-------------------------------|-4-----5---4-4----------|
|-4-----6-----4-------------4-6-|---------6-------6----2-|
|---6-6---6-6---6-4-6-4-6-------|---6-6---------6----4-2-|
|-------------------------6-----|--------------------4-0-|
|-------------------------------|--------------------2---|


  \7
                                                             |-3-|
  W                                Q       S E   S +Q.       S S S
|--------------------------------|---------------------------------|
|--------------------------------|---------------------------------|
|--------------------------------|---------------------------------|
|-4------------------------------|-1-------2-----1-(1)/------------|
|--------------------------------|-----------4---------------------|
|--------------------------------|---------------------------4h6h7-|
|
| S  S S S S S S S S E S S S S S   S S S S S S E    S   E. E E
|--------------------------------|---------------------------------|
|--------------------------------|-4-----5---4-4-------------------|
|-4------6-----4-------------4-6-|---------6------------6----2-----|
|----6-6---6-6---6-4-6-4-6-------|---6-6------------6------4-2-----|
|--------------------------6-----|-------------------------4-0-----|
|--------------------------------|-------------------------2-------|


  |----6----| |----3----|      |-3-|         |-3-|
  S S S S S S S S S S S S T S. S S S T T T T S S S
|--------------------------------------------------|
|--------------------------------------------------|
|-------------------------6h8--6-----------6-6h8h9-|
|-------------------4h6h8--------9p8-6h8h9---------|
|-4h6h7p6p4---4h6h7--------------------------------|
|-----------7--------------------------------------|
|
| W
|--------------------------------------------------|
|--------------------------------------------------|
|--------------------------------------------------|
|-8------------------------------------------------|
|--------------------------------------------------|
|--------------------------------------------------|


                                                                                                     D.S. al Coda
                                                                                                         ~~~~~
  |--3---|  |-----5-----|        |--3--|
  T   T  T  T  T  T  T  T  T  T  T  T  T  T  T  T  T  X  X  X  X  T  T  T    X  X  X  X  T    S  a      +Q
|----------------------------------------16-16-19h21----------------19h21--------------------19-21b23==(21)r------||
|----------------------------16-16h17h19-------------21p19h21p19h21---------21p19h21p19h21------------------------||
|-------------------16h18h20--------------------------------------------------------------------------------------||
|-9h=11h13-16h18h20-----------------------------------------------------------------------------------------------||
|-----------------------------------------------------------------------------------------------------------------||
|-----------------------------------------------------------------------------------------------------------------||
|
|                                                                 |-----------3------------|             |--3--|
| H                                                               E       E                E             E   E E
|-----------------------------------------------------------------------------------------------------------------||
|-----------------------------------------------------------------------------------------------------------------||
|-8\--------------------------------------------------------------2------------------------------------------4-7--||
|-----------------------------------------------------------------2-------6----------------4-------------6---4-7--||
|-----------------------------------------------------------------0-------6----------------4-------------6---2-5--||
|-------------------------------------------------------------------------4----------------2-------------4--------||


 Outro
  &
  Gtrs I, II
  |----6----| |----6----| |----6----| |----6----|
  S S S S S S S S S S S S S S S S S S S S S S S S   Q  Q  Q  Q
|-------------------------------------------------|-------------|
|-------------------------------------------------|-------------|
|-------------------------------------------------|-4--9--7--6--|
|-------------------------------------------------|-4--9--7--6--|
|-2-2-2-2-2-2-2-2-2-2-2-2-2-2-2-2-2-2-2-2-2-2-2-2-|-2--7--5--4--|
|-------------------------------------------------|-------------|


  |----6----| |----6----| |----6----| |----6----|
  S S S S S S S S S S S S S S S S S S S S S S S S   Q  Q  Q  Q
|-------------------------------------------------|-------------|
|-------------------------------------------------|-------------|
|-------------------------------------------------|-4--6--7--9--|
|-------------------------------------------------|-4--6--7--9--|
|-2-2-2-2-2-2-2-2-2-2-2-2-2-2-2-2-2-2-2-2-2-2-2-2-|-2--4--5--7--|
|-------------------------------------------------|-------------|


Rhy Fig 2 x2


    |----6----| |----6----| |----6----| |----6----|
    S S S S S S S S S S S S S S S S S S S S S S S S
||---------------------------------------------------||
||o-------------------------------------------------o||
||---------------------------------------------------||
||---------------------------------------------------||
||o-2-2-2-2-3-3-3-5-5-5-5-5-2-2-2-2-3-3-3-5-5-5-5-5-o||
||---------------------------------------------------||


  |-3-| |-3-| |-3-| |-3-|   |-3-| |-3-| |-3-| |-3-| |-3-| |-3-| |-3-| |-3-|
  E E E E E E E E E E E E   S S S S S S S S S S S S S S S S S S S S S S S S
|-------------------------|-------------------------------------------------|
|-------------------------|-------------------------------------------------|
|-------------------------|-------------------------------------------------|
|-------------------------|-------------------------------------------------|
|-2-3-5-2-3-5-2-3-5-2-3-5-|-2-3-5-2-3-5-2-3-5-2-3-5-2-3-5-2-3-5-2-3-5-2-3-5-|
|-------------------------|-------------------------------------------------|


                                      E5                       Bb5
                                    Gtr II
    W                                 e.     S Q       Q       Q
                                      |      |                 |
                                      /      /                 /

    Gtrs I, II                      Gtr I
    S S S S S S S S S S S S S S S S   S  S S S S S S S S S S S Q   8x
||----------------------------------|------------------------------||
||o---------------------------------|-----------------------------o||
||----------------------------------|--------------------------3---||
||--2-----0-----2-----3-----2p0-----|-2------0-----2-----3-----3---||
||o---------------------------------|--------------------------1--o||
||----0-0---0-0---0-0---0-0-----3p0-|----0-0---0-0---0-0---0-0-----||


  Gtrs I, II
|-Rhy Fig 6
         F#5
           S   S S S          S  S  S  S  S S   S    S          S  S S S
           |   | | |          |  |  |  |  | |   |    |          |  | | |
           /   / / /          /  /  /  /  / /   /    /          /  / / /

  Gtr IV
                                          |---3----|
   a      +Q          a      +E     S  S  E   E    E    a      +Q
|-12b14==(12)r-------12b14==(12)---12r-9-12---9---12---14b18==(14)-------|
|------------------------------------------------------------------------|
|------------------------------------------------------------------------|
|------------------------------------------------------------------------|
|------------------------------------------------------------------------|
|------------------------------------------------------------------------|

                                                  end Rhy Fig 6-|
                                                         E5 G5
    S    S  S  S  S     S     S    S     S    S     S  S  E E
    |    |  |  |  |     |     |    |     |    |     |  |  | |
    /    /  /  /  /     /     /    /     /    /     /  /  / /

                                                          ~~
                              |---3---|  |---3---|
   +E       S  S  T  T  T  T  S  S    S  S  S    S  S  S  Q
|-(14)r\---18-16-----------------------------------------------|
|----------------17-15-14--------------------------------------|
|-------------------------16-15p14-----------------------------|
|------------------------------------17-16p14------------------|
|-----------------------------------------------17-16-15-------|
|--------------------------------------------------------14----|

w/Rhy Fig 6 x2
  S S E    a       +S   +S  S S S  S   S   S   Q
|-------------------------------------------------------|
|-----2---[7]b10==([7])r(7)-----------------------------|
|-----2-----------------------2-2-[4]-[4]-[4]-----------|
|-4-4-----------------------4-----------------[4]-------|
|-------------------------------------------------------|
|-------------------------------------------------------|



  T T S T T T T  T T S  T T  S   T  T  T  T  S  S   a        +Q
|-3p2-----------10p9------------15-15p14------------------------------|
|-----0-0h2h3p0------0-10p9--------------17-15-17-[17]b19==([17])r----|
|---------------------------11/---------------------------------------|
|---------------------------------------------------------------------|
|---------------------------------------------------------------------|
|---------------------------------------------------------------------|


   S   S   S   S   S   E.       S        +S    T  +S.    S       +E      S
|--------------------------------------------------------------------------|
|--------------------------------------------------------------------------|
|-----------------------------[11]b14==([11])-11r(11)---[9]b12==([9])r-----|
|--------------------------------------------------------------------------|
|--------------------------------------------------------------------------|
|-[2]-[2]-[2]-[2]-[2]-[2]--------------------------------------------------|


   T  S.    T  T  T  T  T  T S E   Q       Q
|----------------14h17-17h21--------------------|
|-------------14--------------------------------|
|----------14-----------------------------------|
|----------------------------4p1S==2S======4\---|
|----------------------------4p1S==2S======4\---|
|-14-17-----------------------------------------|


                                                        E5
                              Gtr II
  W                             H               Q       E E
                                                        | |
                                                        / /

  Gtrs I, II                  Gtr I
  S S S S S S S S S S S S E E   S S S S S S S S S S S S E E
|-----------------------------|------------------------------|
|-----------------------------|------------------------------|
|-2-----4-----2-----4-----2-4-|------------------------------|
|-2-----4-----2-----4-----2-4-|------------------------------|
|-----------------------------|------------------------------|
|---4-4---2-2---2-2---2-2-----|-2-2-2-2-2-2-2-2-2-2-2-2-0-0--|


  +W               +W           W
   |                |
   /                /

                              Gtrs I, II
  +Q.   E +H       +W           H    H
|----------------|------------|-----------|
|----------------|------------|-----------|
|----------------|------------|-----------|
|----------------|------------|-4----4----|
|----------------|------------|-4----4----|
|-(0)---0-(0)----|-(0)--------|-2----2----|


  Q  Q  Q  Q    W          W
|-------------|----------|------*|
|-------------|----------|------*|
|-------------|----------|------*|
|-4--9--7--6--|-5--------|-4----*|
|-4--9--7--6--|-5--------|-4----*|
|-2--7--5--4--|-3--------|-2----*|
comments
print report bad tab
5 comments total. Showing first comments.
0 reply
abigape wrote on March 2 2006, 12:43 pm

excellenta

0 reply
javier2012 wrote on October 25 2007, 05:40 pm

sound good but is a litle dificult to play the intro!!

0 reply
bucketheadShred wrote on July 2 2009, 12:40 pm

Good tab, 100%.
That is the right way to play the intro, if you go to their website it has all their tabs.

I want to post or [tab]
guest
You may want to rate the tab now too:
select rating
Please do not post tabs as comments. Select "correction" instead!