Oops, an error
Loading. Please wait.

Rocka Rolla Bass Tab

ver1
ver1

Whole song

Interactive

More versions @911Tabs.com
1,404 views 1 this week
no commentswrite comment
1 2 3 4 5
excellent!
x 1
Autoscroll
+/-
esc
set tempo
stop
Contributor
Difficulty
Tabbers playing skills
novice
intermediate ++
Hey! There's an official Ultimate Guitar app which is ideal
for learning songs when you're away from computer. Get the app
WARNING: You are trying to view
                                    content from Ultimate-Guitar.com
                                    in an unauthorized application,
                                    which is prohibited.

                                    Please use an official Ultimate
                                    Guitar Tabs application for iPhone,
                                    iPad or Android to access legitimate
                                    chords, guitar, bass, and drum tabs
                                    from Ultimate-Guitar.com database.

                                    Type "ultimate guitar tabs" in Apple
                                    App Store's or Android Market's
                                    search to find the application.
                                  Rocka Rolla                                   


                                                                    Judas Priest
Bass



     W                   W                   W                 
G||-------------------|-------------------|-------------------|
D||-------------------|-------------------|-------------------|
A||-------------------|-------------------|-------------------|
E||-------------------|-------------------|-------------------|


                          ^     ^     ^     ^        ^     ^     ^     ^      
  H        E  E  E  E     E  E  E  E  E  E  E  E     E  E  E  E  E  E  E  E   
-----------------------|--------------------------|--------------------------|
-----------------------|--------------------------|--------------------------|
-----------0--------3--|--0--0--0--0--0--0--0--0--|--0--0--0--0--0--------3--|
--------------0--3-----|--------------------------|-----------------0--3-----|


  ^     ^     ^     ^        ^     ^     ^     ^      
  E  E  E  E  E  E  E  E     E  E  E  E  E  E  E  E   
--------------------------|--------------------------|
--------------------------|--------------------------|
--0--0--0--0--0--0--0--0--|--0--0--0--0--0--------3--|
--------------------------|-----------------0--3-----|


  ^     ^     ^     ^        ^     ^     ^     ^      
  E  E  E  E  E  E  E  E     E  E  E  E  E  E  E  E   
--------------------------|--------------------------|
--------------------------|--------------------------|
--0--0--0--0--0--0--0--0--|--0--0--0--0--0--------3--|
--------------------------|-----------------0--3-----|


  ^     ^     ^     ^        ^     ^     ^     ^      
  E  E  E  E  E  E  E  E     E  E  E  E  E  E  E  E   
--------------------------|--------------------------|
--------------------------|--------------------------|
--0--0--0--0--0--0--0--0--|--0--0--0--0--0--------3--|
--------------------------|-----------------0--3-----|


  ^     ^     ^     ^        ^     ^     ^     ^      
  E  E  E  E  E  E  E  E     E  E  E  E  E  E  E  E   
--------------------------|--------------------------|
--------------------------|--------------------------|
--0--0--0--0--0--0--0--0--|--0--0--0--0--0--------3--|
--------------------------|-----------------0--3-----|


  ^     ^     ^     ^        ^     ^     ^     ^      
  E  E  E  E  E  E  E  E     E  E  E  E  E  E  E  E   
--------------------------|--------------------------|
--------------------------|--------------------------|
--0--0--0--0--0--0--0--0--|--0--0--0--0--0-----3-----|
--------------------------|-----------------0-----3--|


  ^     ^     ^     ^        ^     ^     ^     ^      
  E  E  E  E  E  E  E  E     E  E  E  E  E  E  E  E   
--------------------------|--------------------------|
--2--2--2--2--2--2--2--2--|--2--2--2--2--2--2--2--2--|
--------------------------|--------------------------|
--------------------------|--------------------------|


  ^     ^     ^     ^        ^     ^     ^     ^      
  E  E  E  E  E  E  E  E     E  E  E  E  E  E  E  E   
--------------------------|--------------------------|
--2--2--2--2--2--2--2--2--|--2--2--2--2--2-----------|
--------------------------|-----------------------3--|
--------------------------|-----------------0--3-----|


  ^     ^     ^     ^        ^     ^     ^     ^      
  E  E  E  E  E  E  E  E     E  E  E  E  E  E  E  E   
--------------------------|--------------------------|
--------------------------|--------------------------|
--0--0--0--0--0--0--0--0--|--0--0--0--0--0--------3--|
--------------------------|-----------------0--3-----|


  ^     ^     ^     ^                          ^      ^      ^      ^       
  E  E  E  E  E  E  E  E     E  E  E  E  E     E  S S E  S S E  S S E  S S  
--------------------------|-----4-----------|------------------------------|
-----------------------2--|--L-----4--5--0--|------------------------------|
--0--0--0--0--0--0--0-----|-----------------|------------------------------|
--------------------------|-----------------|--0--0-0-0--0-0-0--0-0-0--0-0-|


  ^      ^      ^      ^         ^      ^                   
  E  S S E  S S E  S S E  S S    E  S S E  S S E  E  E  E   
------------------------------|----------------------------|
------------------------------|-------------------------2--|
------------------------------|--3--3-3-3--3-3-------------|
--0--0-0-0--0-0-0--0-0-0--0-0-|----------------3--2--0-----|


         ^      ^      ^         ^      ^      ^      ^       
  E  S S E  S S E  S S E  S S    E  S S E  S S E  S S E  S S  
------------------------------|------------------------------|
--L---------------------------|------------------------------|
------------------------------|------------------------------|
-----0-0-0--0-0-0--0-0-0--0-0-|--0--0-0-0--0-0-0--0-0-0--0-0-|


  ^      ^      ^      ^         ^      ^                                       
  E  S S E  S S E  S S E  S S    E  S S E  S S E  E  E  E     W                 
------------------------------|----------------------------|-------------------|
------------------------------|-------------------------2--|--L----------------|
------------------------------|--3--3-3-3--3-3-5--5--5-----|-------------------|
--0--0-0-0--0-0-0--0-0-0--0-0-|----------------------------|-------------------|


                      ^      ^      ^      ^       
  W                   E  S S E  S S E  S S E  S S  
-------------------|------------------------------|
--L----------------|--2--2-2-2--2-2-2--2-2-2--2-2-|
-------------------|------------------------------|
-------------------|------------------------------|


  ^      ^      ^      ^         ^      ^                 
  E  S S E  S S E  S S E  S S    E  S S E  S S Q    Q     
------------------------------|----------------2----0----|
--2--2-2-2--2-2-2--2-2-2--2-2-|--2--2-2-2--2-2-----------|
------------------------------|--------------------------|
------------------------------|--------------------------|


  ^      ^      ^      ^         ^      ^      ^      ^       
  E  S S E  S S E  S S E  S S    E  S S E  S S E  S S E  S S  
------------------------------|------------------------------|
--2--2-2-2--2-2-2--2-2-2--2-2-|--2--2-2-2--2-2-2--2-2-2--2-2-|
------------------------------|------------------------------|
------------------------------|------------------------------|


  ^      ^      ^      ^         ^      ^                 
  E  S S E  S S E  S S E  S S    E  S S E  S S Q    Q     
------------------------------|----------------2----0----|
--2--2-2-2--2-2-2--2-2-2--2-2-|--2--2-2-2--2-2-----------|
------------------------------|--------------------------|
------------------------------|--------------------------|


  ^      ^      ^      ^         ^      ^      ^      ^       
  E  S S E  S S E  S S E  S S    E  S S E  S S E  S S E  S S  
------------------------------|--2--2-2-2--2-2-2--2-2-2--2-2-|
--2--2-2-2--2-2-2--2-2-2--2-2-|------------------------------|
------------------------------|------------------------------|
------------------------------|------------------------------|


  ^      ^      ^      ^         ^      ^                 
  E  S S E  S S E  S S E  S S    E  S S E  S S Q    Q     
--2--2-2-2--2-2-2--2-2-2--2-2-|--2--2-2-2--2-2-7----5----|
------------------------------|--------------------------|
------------------------------|--------------------------|
------------------------------|--------------------------|


  ^      ^      ^      ^         ^      ^      ^      ^       
  E  S S E  S S E  S S E  S S    E  S S E  S S E  S S E  S S  
--2--2-2-2--2-2-2--2-2-2--2-2-|------------------------------|
------------------------------|--2--2-2-2--2-2-2--2-2-2--2-2-|
------------------------------|------------------------------|
------------------------------|------------------------------|


  ^      ^      ^      ^         ^      ^                                     
  E  S S E  S S E  S S E  S S    E  S S E  S S Q    Q       W                 
------------------------------|--------------------------|-------------------|
--2--2-2-2--2-2-2--2-2-2--2-2-|--2--2-2-2--2-2-0---------|-------------------|
------------------------------|---------------------2----|--3----------------|
------------------------------|--------------------------|-------------------|


  W                   W                   W                 
-------------------|-------------------|-------------------|
-------------------|-------------------|-------------------|
-------------------|-------------------|-------------------|
-------------------|-------------------|-------------------|


                          ^     ^     ^     ^        ^     ^     ^     ^      
  H        E  E  E  E     E  E  E  E  E  E  E  E     E  E  E  E  E  E  E  E   
-----------------------|--------------------------|--------------------------|
-----------------------|--------------------------|--------------------------|
--------------------3--|--0--0--0--0--0--0--0--0--|--0--0--0--0--0--------3--|
--------------0--3-----|--------------------------|-----------------0--3-----|


  ^     ^     ^     ^        ^     ^     ^     ^      
  E  E  E  E  E  E  E  E     E  E  E  E  E  E  E  E   
--------------------------|--------------------------|
--------------------------|--------------------------|
--0--0--0--0--0--0--0--0--|--0--0--0--0--0--------3--|
--------------------------|-----------------0--3-----|


  ^     ^     ^     ^        ^     ^     ^     ^      
  E  E  E  E  E  E  E  E     E  E  E  E  E  E  E  E   
--------------------------|--------------------------|
--------------------------|--------------------------|
--0--0--0--0--0--0--0--0--|--0--0--0--0--0--------3--|
--------------------------|-----------------0--3-----|


  ^     ^     ^     ^        ^     ^     ^     ^      
  E  E  E  E  E  E  E  E     E  E  E  E  E  E  E  E   
--------------------------|--------------------------|
--------------------------|--------------------------|
--0--0--0--0--0--0--0--0--|--0--0--0--0--0--------3--|
--------------------------|-----------------0--3-----|


  ^     ^     ^     ^        ^     ^     ^     ^      
  E  E  E  E  E  E  E  E     E  E  E  E  E  E  E  E   
--------------------------|--------------------------|
--------------------------|--------------------------|
--0--0--0--0--0--0--0--0--|--0--0--0--0--0--------3--|
--------------------------|-----------------0--3-----|


  ^     ^     ^     ^        ^     ^     ^            
  E  E  E  E  E  E  E  E     E  E  E  E  E  E  E  E   
--------------------------|--------------------------|
--------------------------|--------------------------|
--0--0--0--0--0--0--0--0--|--0--0--0--0--0-----3-----|
--------------------------|-----------------0-----3--|


  ^     ^     ^     ^        ^     ^     ^     ^      
  E  E  E  E  E  E  E  E     E  E  E  E  E  E  E  E   
--------------------------|--------------------------|
--2--2--2--2--2--2--2--2--|--2--2--2--2--2--2--2--2--|
--------------------------|--------------------------|
--------------------------|--------------------------|


  ^     ^     ^     ^        ^     ^     ^     ^      
  E  E  E  E  E  E  E  E     E  E  E  E  E  E  E  E   
--------------------------|--------------------------|
--2--2--2--2--2--2--2--2--|--2--2--2--2--2-----------|
--------------------------|-----------------------3--|
--------------------------|-----------------0--3-----|


  ^     ^     ^     ^        ^     ^     ^     ^      
  E  E  E  E  E  E  E  E     E  E  E  E  E  E  E  E   
--------------------------|--------------------------|
--------------------------|--------------------------|
--0--0--0--0--0--0--0--0--|--0--0--0--0--0--------3--|
--------------------------|-----------------0--3-----|


  ^     ^     ^     ^                          ^      ^      ^      ^       
  E  E  E  E  E  E  E  E     E  E  E  E  E     E  S S E  S S E  S S E  S S  
--------------------------|-----4-----------|------------------------------|
-----------------------2--|--L-----4--5--0--|------------------------------|
--0--0--0--0--0--0--0-----|-----------------|------------------------------|
--------------------------|-----------------|--0--0-0-0--0-0-0--0-0-0--0-0-|


  ^      ^      ^      ^         ^      ^                   
  E  S S E  S S E  S S E  S S    E  S S E  S S E  E  E  E   
------------------------------|----------------------------|
------------------------------|-------------------------2--|
------------------------------|--3--3-3-3--3-3-------------|
--0--0-0-0--0-0-0--0-0-0--0-0-|----------------3--2--0-----|


         ^      ^      ^         ^      ^      ^      ^       
  E  S S E  S S E  S S E  S S    E  S S E  S S E  S S E  S S  
------------------------------|------------------------------|
--L---------------------------|------------------------------|
------------------------------|------------------------------|
-----0-0-0--0-0-0--0-0-0--0-0-|--0--0-0-0--0-0-0--0-0-0--0-0-|


  ^      ^      ^      ^         ^      ^                   
  E  S S E  S S E  S S E  S S    E  S S E  S S E  E  E  E   
------------------------------|----------------------------|
------------------------------|-------------------------2--|
------------------------------|--3--3-3-3--3-3-------------|
--0--0-0-0--0-0-0--0-0-0--0-0-|----------------3--2--0-----|


         ^      ^      ^         ^      ^      ^      ^       
  E  S S E  S S E  S S E  S S    E  S S E  S S E  S S E  S S  
------------------------------|------------------------------|
--L---------------------------|------------------------------|
------------------------------|------------------------------|
-----0-0-0--0-0-0--0-0-0--0-0-|--0--0-0-0--0-0-0--0-0-0--0-0-|


  ^      ^      ^      ^         ^      ^                   
  E  S S E  S S E  S S E  S S    E  S S E  S S E  E  E  E   
------------------------------|----------------------------|
------------------------------|-------------------------2--|
------------------------------|--3--3-3-3--3-3-------------|
--0--0-0-0--0-0-0--0-0-0--0-0-|----------------3--2--0-----|


         ^      ^      ^         ^      ^      ^      ^       
  E  S S E  S S E  S S E  S S    E  S S E  S S E  S S E  S S  
------------------------------|------------------------------|
--L---------------------------|------------------------------|
------------------------------|------------------------------|
-----0-0-0--0-0-0--0-0-0--0-0-|--0--0-0-0--0-0-0--0-0-0--0-0-|


  ^      ^      ^      ^         ^      ^                   
  E  S S E  S S E  S S E  S S    E  S S E  S S E  E  E  E   
------------------------------|----------------------------|
------------------------------|-------------------------2--|
------------------------------|--3--3-3-3--3-3-------------|
--0--0-0-0--0-0-0--0-0-0--0-0-|----------------3--2--0-----|


         ^      ^      ^         ^      ^      ^      ^       
  E  S S E  S S E  S S E  S S    E  S S E  S S E  S S E  S S  
------------------------------|------------------------------|
--L---------------------------|------------------------------|
------------------------------|------------------------------|
-----0-0-0--0-0-0--0-0-0--0-0-|--0--0-0-0--0-0-0--0-0-0--0-0-|


  ^      ^      ^      ^         ^      ^                   
  E  S S E  S S E  S S E  S S    E  S S E  S S E  E  E  E   
------------------------------|----------------------------|
------------------------------|-------------------------2--|
------------------------------|--3--3-3-3--3-3-------------|
--0--0-0-0--0-0-0--0-0-0--0-0-|----------------3--2--0-----|


         ^      ^      ^         ^      ^      ^      ^       
  E  S S E  S S E  S S E  S S    E  S S E  S S E  S S E  S S  
------------------------------|------------------------------|
--L---------------------------|------------------------------|
------------------------------|------------------------------|
-----0-0-0--0-0-0--0-0-0--0-0-|--0--0-0-0--0-0-0--0-0-0--0-0-|


  ^      ^      ^      ^         ^      ^                    
  E  S S E  S S E  S S E  S S    E  S S E  S S E  E  E  E    
------------------------------|----------------------------||
------------------------------|-------------------------2--||
------------------------------|--3--3-3-3--3-3-------------||
--0--0-0-0--0-0-0--0-0-0--0-0-|----------------3--2--0-----||




Duration Legend
---------------
W - whole
H - half
Q - quarter
E - 8th
S - 16th
T - 32nd
X - 64th
. - note dotted
|-n-|  - n-tuplets

Tablature Legend
----------------
L - tied note
comments
We did not receive enough feedback on this tab! Please rate:
print report bad tab
1 2 3 4 5
I want to post or [tab]
guest
You may want to rate the tab now too:
select rating
Please do not post tabs as comments. Select "correction" instead!