Oops, an error
Loading. Please wait.

Sin After Sin Tab

3,000 views 15 this week
no commentswrite comment
1 2 3 4 5
excellent!
x 1
Autoscroll
+/-
esc
set tempo
stop
Contributor
Difficulty
advanced
Hey! There's an official Ultimate Guitar app which is ideal
for learning songs when you're away from computer. Get the app
WARNING: You are trying to view
                                    content from Ultimate-Guitar.com
                                    in an unauthorized application,
                                    which is prohibited.

                                    Please use an official Ultimate
                                    Guitar Tabs application for iPhone,
                                    iPad or Android to access legitimate
                                    chords, guitar, bass, and drum tabs
                                    from Ultimate-Guitar.com database.

                                    Type "ultimate guitar tabs" in Apple
                                    App Store's or Android Market's
                                    search to find the application.
        Judas priest  - Sin after sin ALBUM

1. Sinner
2. Diamonds and Rust
3. Starbreaker
4. Last Rose of Summer
5. Let Us Prey/Call for the Priest
6. Raw Deal
7. Here Come the Tears
8. "Dissident Aggressor


TABLATURE LEGEND
----------------
 h   - hammer-on
 p   - pull-off
 b   - bend
 pb  - pre-bend
 r   - bend release (if no number after the r, then release immediately)
 /\  - slide into or out of (from/to "nowhere")
 s   - legato slide
 S   - shift slide
  - natural harmonic
[n]  - artificial harmonic
n(n) - tapped harmonic
 ~   - vibrato
 tr  - trill
 T   - tap
 TP  - trem. picking
 PM  - palm muting
\n/  - tremolo bar dip; n = amount to dip
 \n  - tremolo bar down
 n/  - tremolo bar up
/n\  - tremolo bar inverted dip
 =   - hold bend; also acts as connecting device for hammers/pulls
 <>  - volume swell (louder/softer)
 x   - on rhythm slash represents muted slash
 o   - on rhythm slash represents single note slash
 |  - bar
||  - double bar
||o - repeat start
o|| - repeat end
*|  - double bar (ending)
 :  - bar (freetime)
 $  - Segno

1. Sinner
Tune Gtr to E


Riff A.1
|-----------------------------|
|-----------------------------|
|-----------------------------|
|--7h9-----9-----9---7---7----|
|--7h7-----7-----7---7---7----|
|------0-0---0-0---0---0------|

Riff A.2
|-----------------------------|
|-----------------------------|
|-----------------------------|
|-----------------------------|
|--5h7-----7-----7---5---5----|
|--5h5-5-5-5-5-5-5-5-5-5-5----|

Riff B
|---------------------------|
|---------------------------|
|--5-----7-----9--------4---|
|--5--3--7--5--9--7--4--4---|
|--3--3--5--5--7--7--4--2---|
|-----1-----3-----5--2------|

Riff C
|-----------------------|
|-----------------------|
|-----------------------|
|--7/9--7/9--7/9--12----|
|--5/7--5/7--5/7--10----|
|-----------------------|

Riff D
|------------------|
|------------------|
|------------------|
|------------------|
|--7p5----5--------|
|-------7---7-3----|

Riff E
|---------------------------------------------|
|---------------------------------------------|
|----------3--4--------7----2-2----------5----|
|--2--2----3--4-----7--7----2-2----4--5--5----|
|--2--2----1--2-----7--5----0-0----4--5--3----|
|--0--0-------------5--------------2--3-------|

Riff F
|----------------------------------------------------------------|
|----------------------------------------------------------------|
|----5---5-5--------------------5---5-5--------------------------|
|----5---5-5-------5h7p5--------5---5-5-------5h7p5--------------|
|--0---0-----0-5h7-------7p5--0---0-----0-5h7-------7-6-5-3------|
|----------------------------------------------------------------|

Riff G
|------------------|
|------------------|
|--4--5------------|
|--4--5--6-7-8-9---|
|--2--3--4-5-6-7---|
|------------------|

Riff H
|---------------|
|---------------|
|--9--------7---|
|--9--------7---|
|--7--7p5---5---|
|---------7-----|

Riff I
|----------------------|
|----------------------|
|----------------------|
|----9---9-9-----------|
|----7---7-7-----------|
|--0---0------5-4-3----|

Riff J
|------------------------------------|
|------------------------------------|
|----------------------5-----7--4----|
|--------2--------2----5--5--7--4----|
|--------2--------2----3--5--5--2----|
|--5-4-3-0--5-4-3-0-------3----------|

END
|--------------------------0-----|
|--------------------------0-----|
|--------------------------1-----|
|--7-7--9-9--12-12-14-14---2-----|
|--5-5--7-7--10-10-12-12---2-----|
|--------------------------0-----|

2. Diamonds and Rust
Tunning E A D G B E

 Intro
  Guitar 1
E[------------------------------|
B[------------------------------|
G[------------------------------|
D[------------------------------|
A[-7-7-7-7777-77-7-7-7-7777-77--|
E[-0-0-0-0000-00-0-0-0-0000-00--|
 [Guitar 2
E[------------------------------|
B[-------------------7----8-----|
G[-------------------7----7-----|
D[-------------------7----9-----|
A[------------------------------|
E[------------------------------|

 Main Riff
 Guitar 1
   [------------------------PM--------------------------------|
E[------------------------------------------------------------|
B[------------------------------------------------------------|
G[------------------------------------------------------------|
D[------------------------------------------------------------|
A[-7-7-7-7777-77-7-7-7-7777-77-9-9-9-9999-99-9-9-9-9999-99----|
E[-0-0-0-0000-00-0-0-0-0000-00-7-7-7-7777-77-7-7-7-7777-77----|
 [Guitar 2
E[----------------------------------------------------------|
B[----------------------------------------------------------|
G[----------------------------------------------------------|
D[-9---------(9)---------------9--------------9-------------|
A[-7---------(7)---------------9--------------9-------------|
E[-0---------(0)---------------7--------------7-------------|
 [Guitar 3
E[----------------------------------------------------------|
B[-8-------------8p7----8p7----7--------------7-------------|
G[-9-------------7-7----7-7----9--------------8-------------|
D[-9-------------9-9----9-9----9--------------9-------------|
A[----------------------------------------------------------|
E[----------------------------------------------------------|

 Guitar 1
   [------------------------PM--------------------------------|
E[------------------------------------------------------------|
B[------------------------------------------------------------|
G[------------------------------------------------------------|
D[------------------------------------------------------------|
A[-7-7-7-7777-77-7-7-7-7777-77-9-9-9-9999-99-9-9-9-9999-99----|
E[-0-0-0-0000-00-0-0-0-0000-00-7-7-7-7777-77-7-7-7-7777-77----|
 [Guitar 2
E[----------------------------------------------------------|
B[----------------------------------------------------------|
G[----------------------------------------------------------|
D[-9---------(9)---------------9--------------9-------------|
A[-7---------(7)---------------9--------------9-------------|
E[-0---------(0)---------------7--------------7-------------|
 [Guitar 3
E[----------------------------------------------------------|
B[-8-------------8p7----8p7----7--------------7-------------|
G[-9-------------7-7----7-7----9--------------8-------------|
D[-9-------------9-9----9-9----9--------------9-------------|
A[----------------------------------------------------------|
E[----------------------------------------------------------|
 [Guitar 4                                     ~~~~~~~~~~~~
E[----------------------------------------------------------|
B[----------------------------------------------------------|
G[--------------------------------------------12------------|
D[----------------------------------------------------------|
A[----------------------------------------------------------|
E[----------------------------------------------------------|

 Verse

  Guitar 1
   [------------------------PM--------------------------------|
E[------------------------------------------------------------|
B[------------------------------------------------------------|
G[------------------------------------------------------------|
D[-----------------------------5-5-5-5555-55-5-5-5-5555-55----|
A[-7-7-7-7777-77-7-7-7-7777-77-3-3-3-3333-33-3-3-3-3333-33----|
E[-0-0-0-0000-00-0-0-0-0000-00--------------------------------|
 [Guitar 2
E[----------------------------------------------------------|
B[-8-----------(8)------------------------------------------|
G[-9-----------(9)-------------5--------------(5)-----------|
D[-9-----------(9)-------------5--------------(5)-----------|
A[-7-----------(7)-------------3--------------(3)-----------|
E[-0-----------(0)------------------------------------------|

  Guitar 1
   [------------------------PM--------------------------------|
E[------------------------------------------------------------|
B[------------------------------------------------------------|
G[------------------------------------------------------------|
D[-----------------------------7-7-7-7777-77-7-7-7-7777-77----|
A[-5-5-5-5555-55-5-5-5-5555-55-5-5-5-5555-55-5-5-5-5555-55----|
E[-3-3-3-3333-33-3-3-3-3333-33--------------------------------|
 [Guitar 2
E[----------------------------------------------------------|
B[----------------------------------------------------------|
G[-----------------------------7--------------(7)-----------|
D[-5-----------(5)-------------7--------------(7)-----------|
A[-5-----------(5)-------------5--------------(5)-----------|
E[-3-----------(3)------------------------------------------|

  Guitar 1
   [------------------------PM--------------------------------|
E[------------------------------------------------------------|
B[------------------------------------------------------------|
G[------------------------------------------------------------|
D[------------------------------------------------------------|
A[-7-7-7-7777-77-7-7-7-7777-77-7-7-7-7777-77-7-7-7-7777-77----|
E[-0-0-0-0000-00-0-0-0-0000-00-0-0-0-0000-00-0-0-0-0000-00----|
 [Guitar 2
E[----------------------------------------------------------|
B[------------------------7---------------------------8-----|
G[------------------------7---------------------------7-----|
D[-9---------(9)----------9----9--------(9)-----------9-----|
A[-7---------(7)---------------7--------(7)-----------------|
E[-0---------(0)---------------0--------(0)-----------------|


 Chorus

 Both guitars
E-----------------------------------------------------------|
B-----------------------------------------------------------|
G-5--------(5)-----------------7--------(7)-----------------|
D-5--------(5)-----------------7--------(7)-----------------|
A-3--------(3)---------0--3--5-5--------(5)-----------10-9--|
E--------------------------------------------------7--------|

  Guitar 1
   [------------------------PM--------------------------------|
E[------------------------------------------------------------|
B[------------------------------------------------------------|
G[------------------------------------------------------------|
D[------------------------------------------------------------|
A[-7-7-7-7777-77-7-7-7-7777-77-7-7-7-7777-77-7-7-7-7777-77----|
E[-0-0-0-0000-00-0-0-0-0000-00-0-0-0-0000-00-0-0-0-0000-00----|
 [Guitar 2
E[----------------------------------------------------------|
B[----------------------------------------------------------|
G[----------------------------------------------------------|
D[-9----------(9)--------------9----------(9)---------------|
A[-7----------(7)--------------7----------(7)---------------|
E[-0----------(0)--------------0----------(0)---------------|Rpt


 Interlude

  B                          A
E-------------------------------------------------------------------|
B-------------------------------------------------------------------|
G-------------------------------------------------------------------|
D-4------------(4)--------------------------------------------------|
A-2------------(2)--------------------------------------------------|
E-------------------------------------------------------------------|
  B                          A                             ~~~~~~
E-------------------------------------------------------------------|
B-------------------------------------------------------------------|
G---------------------------------------2/4-5/4/7b\2/4\7\5\4--------|
D-------------------------------------------------------------------|
A-------------------------------------------------------------------|
E-------------------------------------------------------------------|

  B                          A
E-------------------------------------------------------------------|
B----------------------------15fb----15b13--------------------------|
G------------------------------------------12\8-9-------------------|
D-------------------------------------------------10\---------------|
A-------------------------------------------------------------------|
E-------------------------------------------------------------------|
  C                          G                                    ~~
E------------------------------------------------15-13br13p12p10-12-|
B------------------------------------------8/-/15-------------------|
G------------------------------4-5-------7--/-----------------------|
D----------------------------3-----3-3/9----/-----------------------|
A-------------------------------------------------------------------|
E-------------------------------------------------------------------|
   C                          B
  ~~~~~~~~~~~~~~~~~~              ~~~~~~~~~~~~~~                ~~~~
E[-(12)--------------12-14-15-17fb--------------------r15-14-10-----|
B[-------------------------------------------------------------12---|
G[------------------------------------------------------------------|
D[------------------------------------------------------------------|
A[------------------------------------------------------------------|
E[------------------------------------------------------------------|
 [Guitar 2
E[------------------------------------------------------------------|
B[------------------------------------------------------------------|
G[------------------------------------------------------------------|
D[----------------------------4--------(4)--------4--------(4)------|
A[--------------------------2-2--------(2)--------2--------(2)------|
E[------------------------------------------------------------------|

  Guitar 1                     ~~~~~~~~~~~~~~~~~~~~~~~~~~~~
E[------------------------------------------------------------------|
B[------------------------------------------------------------------|
G[------0----------0------------------------------------------------|
D[--------2----------2-------/4------------------(4)----------------|
A[----------3----------3--------------------------------------------|
E[------------------------------------------------------------------|
 [Guitar 2
E[------------------------------------------------------------------|
B[------------------------------------------------------------------|
G[------------------------------------------------------------------|
D[/5--------(5)--------------/7--------(5)--------------------------|
A[/3--------(3)-------------5/5--------(3)--------------------------|
E[------------------------------------------------------------------|

 Fill during pause

E-------------|
B-------------|
G-------------|
D-/10-9-7-9---|
A-------------|
E-------------|

 Rpt Main Riff with note below
  ~~~~~~~~~~~~~~~~~~~~~~~~~~~~~~~~~~~~~ to feed back
E------------------------------------------------------------|
B------------------------------------------------------------|
G-9-----------------------(9)--------------------------------|
D------------------------------------------------------------|
A------------------------------------------------------------|
E------------------------------------------------------------|

 Rpt Verse
 Additional verse lead
  E                         C
                           ~~~~~~~~~~~~       ~~~~~~~~~~~~~~~
E--------------------------------------------------------------|
B---------------10-12--16fb----------r16p12-15fb---------------|
G-------9-11-12------------------------------------------------|
D--------------------------------------------------------------|
A--------------------------------------------------------------|
E--------------------------------------------------------------|
  G                         D
 ~~~~~~~~~          ~~~ ~~~~~~~~~~    ~~~         ~~~~~~~~~~~~~
E--------------------------------------------------------------|
B-------r15p13-15-12----------------10fbr10-12p10\8------------|
G----------------------12----------------------------11--9--\--|
D--------------------------------------------------------------|
A--------------------------------------------------------------|
E--------------------------------------------------------------|
  E                         C
                        ~~~~~~~~~~~~~~         ~~~~~~~~~~~~~~~~
E--------------------------------------------------------------|
B--------------10-12--15fb-----------15fbrp12-15fb-------------|
G------9-11-12-------------------------------------------------|
D--------------------------------------------------------------|
A--------------------------------------------------------------|
E--------------------------------------------------------------|
  G                         D
 ~~~~~~~~~~           ~~~ ~~~~~~~~~~    ~~~~    ~~~~~~~~~~~~~~
E--------------------------------------------------------------|
B---------pb15r13-15-12---------------10fb10-12\8--------------|
G------------------------12------------------------11----------|
D--------------------------------------------------------------|
A--------------------------------------------------------------|
E--------------------------------------------------------------|
  E
    h~~~~~~~~~~~~~~~~~~~~~~~~~~~~~~~~~~~~
E--------------------------------------------------------------|
B--------------------------------------------------------------|
G-7-9--------------(9)-----------------------------------------|
D--------------------------------------------------------------|
A--------------------------------------------------------------|
E--------------------------------------------------------------|

 Rpt Chorus 6 X

 Last time

E-----------------------------------------------------------|
B-----------------------------------------------------------|
G-5----------------------------7----------------------------|
D-5----------------------------7----------------------------|
A-3--------------------0--3--5-5----------------------10-9--|
E--------------------------------------------------7--------|

E----------------------------------------------------|
B-----------------------------------------------8\---|
G-----------------------------------------------9\---|
D-----------------------------------------------9\---|
A-2-2-2-2-2-2-2-2-2-2-2-2-2--2------(2)---------7\---|
E-0-0-0-0-0-0-0-0-0-0-0-0-0--0------(0)--------------|


3. Starbreaker
              Gtrs I, II
                    ~
  Wx4           E E Q  E E E E   E E E E E E E E   H.      +E  E   +W
|------------||----------------|-----------------|---------------|--------|
|------------||----------------|-----------------|---------------|--------|
|------------||----------------|-----------------|-------------4-|-(4)----|
|------------||----------------|-----------------|-2-------(2)-4-|-(4)----|
|------------||--------4-4-4-4-|-4-4-4-4-4-------|-2-------(2)-2-|-(2)----|
|------------||-5-4-2--2-2-2-2-|-2-2-2-2-2-2-5-4-|-0-------(0)---|--------|
      ~
  E E Q  E E E E   E E E E E E E E   H.      +E  E   +W
|----------------|-----------------|---------------|--------|
|----------------|-----------------|---------------|--------|
|----------------|-----------------|-------------6-|-(6)----|
|----------------|-----------------|-2-------(2)-6-|-(6)----|
|--------4-4-4-4-|-4-4-4-4-4-------|-2-------(2)-4-|-(4)----|
|-5-4-2--2-2-2-2-|-2-2-2-2-2-2-5-4-|-0-------(0)---|--------|

   Verse
        ~
    E E Q  E E E E   E E E E E E E E   H.      +E  E   +W
||-----------------|-----------------|---------------|--------|
||o----------------|-----------------|---------------|--------|
||-----------------|-----------------|-------------4-|-(4)----|
||-----------------|-----------------|-2-------(2)-4-|-(4)----|
||o--------4-4-4-4-|-4-4-4-4-4-------|-2-------(2)-2-|-(2)----|
||--5-4-2--2-2-2-2-|-2-2-2-2-2-2-5-4-|-0-------(0)---|--------|
      ~
  E E Q  E E E E   E E E E E E E E   H.      +E  E   +W
|----------------|-----------------|---------------|--------|
|----------------|-----------------|---------------|--------|
|----------------|-----------------|-------------6-|-(6)----|
|----------------|-----------------|-2-------(2)-6-|-(6)----|
|--------4-4-4-4-|-4-4-4-4-4-------|-2-------(2)-4-|-(4)----|
|-5-4-2--2-2-2-2-|-2-2-2-2-2-2-5-4-|-0-------(0)---|--------|
      ~
  E E Q  E E E E   E E E E E E E E   H.      +E  E   +W
|----------------|-----------------|---------------|--------|
|----------------|-----------------|---------------|--------|
|----------------|-----------------|-------------4-|-(4)----|
|----------------|-----------------|-2-------(2)-4-|-(4)----|
|--------4-4-4-4-|-4-4-4-4-4-------|-2-------(2)-2-|-(2)----|
|-5-4-2--2-2-2-2-|-2-2-2-2-2-2-5-4-|-0-------(0)---|--------|
      ~
  E E Q  E E E E   E E E E E E E E   H.      +E  E   +W
|----------------|-----------------|---------------|--------|
|----------------|-----------------|---------------|--------|
|----------------|-----------------|-------------6-|-(6)----|
|----------------|-----------------|-2-------(2)-6-|-(6)----|
|--------4-4-4-4-|-4-4-4-4-4-------|-2-------(2)-4-|-(4)----|
|-5-4-2--2-2-2-2-|-2-2-2-2-2-2-5-4-|-0-------(0)---|--------|
 Chorus
  E  Q.    +H        +E   Q.    Q  Q
|-----------------|-------------------|
|-----------------|-------------------|
|-9s11----(11)----|-(11)-11--------9--|
|-9s11----(11)----|-(11)-11----11--9--|
|-7s=9-----(9)----|--(9)--9----11--7--|
|-----------------|-------------9-----|
              ~~                            ~~~
  E  E  E  E  Q    E    E     +E   E  E  E  Q.    +E
|--------------------------|------------------------------|
|--------------------------|------------------------------|
|-9s11-11-11-11--------14--|-(14)s16-16-16-16----(16)-----|
|-9s11-11-11-11--------14--|-(14)s16-16-16-16----(16)-----|
|-7s=9--9--9--9--(12)-(12)-|-(12)s14-14-14-14----(14)-----|
|--------------------------|------------------------------|
  E  Q.    +H        +E   Q.    Q  Q
|-----------------|-------------------|
|-----------------|-------------------|
|-9s11----(11)----|-(11)-11--------9--|
|-9s11----(11)----|-(11)-11----11--9--|
|-7s=9-----(9)----|--(9)--9----11--7--|
|-----------------|-------------9-----|
                                          To Coda
              ~~                            ~~~
  E  E  E  E  Q    E    E     +E   E  E  E  Q.    +E
|--------------------------|--------------------------------|
|--------------------------|----------------------------o---|
|-9s11-11-11-11--------14--|-(14)s16-16-16-16----(16)-------|
|-9s11-11-11-11--------14--|-(14)s16-16-16-16----(16)-------|
|-7s=9--9--9--9--(12)-(12)-|-(12)s14-14-14-14----(14)--o----|
|--------------------------|--------------------------------|
                                                         ~~
  W          W          E E E E Q   E   E     E   E  Q  E Q.
|----------|----------|--------------------|--------------------||
|----------|----------|--------------------|--------------------||
|-6--------|-4--------|--------------------|--------------------||
|-6--------|-2--------|-6-6-6-6----(6)-(6)-|-(6)-(6)------------||
|-4--------|-2--------|-6-6-6-6----(6)-(6)-|-(6)-(6)------------||
|----------|-0--------|-4-4-4-4----(4)-(4)-|-(4)-(4)----0-4-----||
                                     ~~~~~~~~    ~
  Q  E E E E E E   E E E E E E E E   Q.   Q.   a Q    +E  Q.   Q  Q
|----------------|-----------------|----------------|-------------------|
|----------------|-----------------|----------------|-------------------|
|-2--------------|-2-2-2-2-2-2-2-2-|-----------5s7--|-(7)---------------|
|-2--------------|-2-2-2-2-2-2-2-2-|------7---------|-----7-------7-----|
|-0--0-0-0-0-0-0-|-0-0-0-0-0-0-0-0-|-5--------------|----------5--------|
|----------------|-----------------|----------------|-------------------|
                                                           ~
  Q  E E E E E E   E E E E E E E E   H.      +E  E   Q  Q  H
|----------------|-----------------|---------------|------------|
|----------------|-----------------|---------------|------------|
|-2--------------|-2-2-2-2-2-2-2-2-|---------------|------------|
|-2--------------|-2-2-2-2-2-2-2-2-|-2-------(2)---|-2----------|
|-0--0-0-0-0-0-0-|-0-0-0-0-0-0-0-0-|-2-------(2)---|------------|
|----------------|-----------------|-0-------(0)-0-|----0--3----|
                                     ~~~~~~~~    ~
  Q  E E E E E E   E E E E E E E E   Q.   Q.   a Q    +E  Q.   Q  Q
|----------------|-----------------|----------------|-------------------|
|----------------|-----------------|----------------|-------------------|
|-2--------------|-2-2-2-2-2-2-2-2-|-----------5s7--|-(7)---------------|
|-2--------------|-2-2-2-2-2-2-2-2-|------7---------|-----7-------7-----|
|-0--0-0-0-0-0-0-|-0-0-0-0-0-0-0-0-|-5--------------|----------5--------|
|----------------|-----------------|----------------|-------------------|
                                     ~~~~~~~~    ~
  Q  E E E E E E   E E E E E E E E   Q.   Q.   a Q
|----------------|-----------------|----------------|
|----------------|-----------------|----------------|
|-2--------------|-2-2-2-2-2-2-2-2-|-----------4s6--|
|-2--------------|-2-2-2-2-2-2-2-2-|------6---------|
|-0--0-0-0-0-0-0-|-0-0-0-0-0-0-0-0-|-4--------------|
|----------------|-----------------|----------------|

  +E  Q.   Q  Q     Q.   Q.   Q    E E Q  Q      E E
|-----------------|--------------|-------------------------|
|-----------------|--------------|-------------------------|
|-(6)-------------|-----------7--|-----9--9tr11--9---------|
|-----6-------6--|------7-------|---9----------------------|
|----------4------|-5------------|-7-----------------------|
|-----------------|--------------|-------------------------|
 Guitar Solo 1
  Gtr I
           ~
   E     E Q  E E E E     E      E E E E E E E
|---------------------|------------------------|
|---------------------|------------------------|
|---------------------|------------------------|
|---------------------|------------------------|
|-------------4-4-4-4-|---4------4-4-4-4-------|
|--5-----4-2--2-2-2-2-|---2------2-2-2-2-2-5-4-|
|
| Gtr II
|  W                     +H..                E
|---------------------|------------------------|
|---------------------|------------------------|
|-11tr14--------------|-(11tr14)s============9-|
|---------------------|------------------------|
|---------------------|------------------------|
|---------------------|------------------------|
   H.               +E   E       +W
|-----------------------------|---------------------------------|
|-----------------------------|---------------------------------|
|------------------------4----|--(4)----------------------------|
|--2----------------(2)--4----|--(4)----------------------------|
|--2----------------(2)--2----|--(2)----------------------------|
|--0----------------(0)-------|---------------------------------|
|
|  ~~~~~~~~~~~~~~                                   ~~~
|           |--3--|
|  H        Q     E  E   E       +E   E  E     +E   Q.    +E
|----------------14-----------|------17---------------------------|
|-------------------14--17b19-|-(17)----17b19-(17)-17----(17)-----|
|-16b18----16b18--------------|-----------------------------------|
|-----------------------------|-----------------------------------|
|-----------------------------|-----------------------------------|
|-----------------------------|-----------------------------------|
          ~
   E    E Q       E E  E    E     E    E      E     E     E     E     E    E
|-----------------------------|------------------------------------------------|
|-----------------------------|------------------------------------------------|
|-----------------------------|------------------------------------------------|
|-----------------------------|------------------------------------------------|
|-----------------4-4--4----4-|---4----4------4-----4-----4--------------------|
|--5----4-2-------2-2--2----2-|---2----2------2-----2-----2-----2-----5----4---|
|
|                                                                     |---3---|
|  Q.        Q.        Q         +E   +S   S  S  S  S  S  S  S  S  S  E  E    E
|-----------------------------|------------------------------------------------|
|-----------------------------|------------------------------------------------|
|-16b17-----16b17-----16b18r==|=(16)-(16)p14-16p14----14-----------------------|
|-----------------------------|--------------------16----16p14-16-14-----------|
|-----------------------------|--------------------------------------16-15p==14|
|-----------------------------|------------------------------------------------|
   H.                         +E  E   +W
|-----------------------------------|-------------------------|
|-----------------------------------|-------------------------|
|---------------------------------6-|-(6)---------------------|
|--2--------------------------(2)-6-|-(6)---------------------|
|--2--------------------------(2)-4-|-(4)---------------------|
|--0--------------------------(0)---|-------------------------|
|
|                        ~~~~~
|  S   S  S  S  +E.  S  +H             E   E  E  E     +H
|-----------------------------------|--------17-19b21-(19)------|
|-----------------------------------|-----17--------------------|
|-----------------------------------|-18------------------------|
|-----------14-(14)-16-(16)--------|----------------------------|
|-14--15-16-------------------------|---------------------------|
|-----------------------------------|---------------------------|

 Harmony
               ~~              ~~~~
   S  S  S  S  H     Q        +H      E  E  E  E
|-21-21-19-19-17----16b17--|-(16)----17-16----------|
|--------------------------|---------------19-17b19-|
|--------------------------|------------------------|
|--------------------------|------------------------|
|--------------------------|------------------------|
|--------------------------|------------------------|
|
|              ~~              ~~~~
|  S  S  S  S  H     Q        +H      E  E  E  E
|-17-17-16-16-14----17b19--|-(17)----14-------------|
|--------------------------|------------17-14-------|
|--------------------------|------------------16b18-|
|--------------------------|------------------------|
|--------------------------|------------------------|
|--------------------------|------------------------|
                                                        ~~~
   +E   e  E     e  Q.      E       +E   E  E  E     E  Q.
|--------------------------------|------14-17-------14-17-------|
|-(17)-17-17b19-17-17b19---17b19-|-(17)-------17b18-------------|
|--------------------------------|------------------------------|
|--------------------------------|------------------------------|
|--------------------------------|------------------------------|
|--------------------------------|------------------------------|
|
|                                                       ~~~
|  +E   e  E     e  Q.      E       +E   E  E  E     E  Q.
|--------------------------------|------------------------------|
|--------------------------------|------14-17-------14----------|
|-(16)-16-16b18-16-16b18---16b18-|-(16)-------16b17----14-------|
|--------------------------------|------------------------------|
|--------------------------------|------------------------------|
|--------------------------------|------------------------------|

               |-3--|   |-3-|  |--3--|
   S  S S S Q  +Q  Q Q   Q Q Q  Q  Q  Q
|--9--9-7-7-5--(5)-4-5s|=7-5-7s=9-10--9-|
|----------------------|----------------|
|----------------------|----------------|
|----------------------|----------------|
|----------------------|----------------|
|----------------------|----------------|
|


|               |-3--|   |-3-|  |--3--|
|  S  S S S Q  +Q  Q Q   Q Q Q  Q  Q  Q
|----------------------|----------------|
|-10-10-9-9-7--(7)-5-7s|=9-7-9s10-12-10-|
|----------------------|----------------|
|----------------------|----------------|
|----------------------|----------------|
|----------------------|----------------|


   E     E  S  S  E     S  S  S  S  E     S  S
|-------14-17p14-------14-14-17p14-------14-14-|
|-17b19----------17b19-------------17b19-------|
|----------------------------------------------|
|----------------------------------------------|
|----------------------------------------------|
|----------------------------------------------|
|
|  E     E  S  S  E     S  S  S  S  E     S  S
|----------------------------------------------|
|-------14-17p14-------14-14-17p14-------14-14-|
|-16b18----------16b18-------------16b18-------|
|----------------------------------------------|
|----------------------------------------------|
|----------------------------------------------|


                                D.S. al Coda
   S  S  S  S  S  S  S  S  E     S  S  S  S  E
|-17p14-14-14-17p14-14-14-------14-14-17p14--------|
|-------------------------17b19-------------17-----|
|--------------------------------------------------|
|--------------------------------------------------|
|--------------------------------------------------|
|--------------------------------------------------|
|
|  S  S  S  S  S  S  S  S  E     S  S  S  S  E
|--------------------------------------------------|
|-17p14-14-14-17p14-14-14-------14-14-17p14--------|
|-------------------------16b18-------------14-----|
|--------------------------------------------------|
|--------------------------------------------------|
|--------------------------------------------------|

  Gtrs I, II
  E  Q.    +H        +E   Q.    Q  Q
|-----------------|-------------------|
|-----------------|-------------------|
|-9s11----(11)----|-(11)-11--------9--|
|-9s11----(11)----|-(11)-11----11--9--|
|-7s=9-----(9)----|--(9)--9----11--7--|
|-----------------|-------------9-----|
              ~~                          ~~~
  E  E  E  E  Q   E   E     +E   E  E  E  Q.    +E
|------------------------|------------------------------|
|------------------------|------------------------------|
|-9s11-11-11-11------14--|-(14)s16-16-16-16----(16)-----|
|-9s11-11-11-11------14--|-(14)s16-16-16-16----(16)-----|
|-7s=9--9--9--9--12-(12)-|-(12)s14-14-14-14----(14)-----|
|------------------------|------------------------------|


  Gtr I
  E  Q.    +H        +E   Q.    Q  Q
|-----------------|-------------------|
|-----------------|-------------------|
|-9s11----(11)----|-(11)-11--------9--|
|-9s11----(11)----|-(11)-11----11--9--|
|-7s=9-----(9)----|--(9)--9----11--7--|
|-----------------|-------------9-----|
|
| Gtr II
| E  Q.    +H        +E   Q.    Q  Q
|-----------------|-------------------|
|-----------------|-------------------|
|-9s11----(11)----|-(11)-11--------9--|
|-9s11----(11)----|-(11)-11----11--9--|
|-7s=9-----(9)----|--(9)--9----11--7--|
|-----------------|-------------9-----|


              ~~                          ~~~
  E  E  E  E  Q   E   E     +E   E  E  E  Q.    +E
|------------------------|------------------------------|
|------------------------|------------------------------|
|-9s11-11-11-11------14--|-(14)s16-16-16-16----(16)-----|
|-9s11-11-11-11------14--|-(14)s16-16-16-16----(16)-----|
|-7s=9--9--9--9--12-(12)-|-(12)s14-14-14-14----(14)-----|
|------------------------|------------------------------|
|
|             ~~                          ~~~
| E  E  E  E  Q   E   E     +E   E  E  E  Q.     E
|------------------------|----------------------------|
|------------------------|----------------------------|
|-9s11-11-11-11------14--|-(14)s16-16-16-16------3----|
|-9s11-11-11-11------14--|-(14)s16-16-16-16-----------|
|-7s=9--9--9--9--12-(12)-|-(12)s14-14-14-14-----------|
|------------------------|----------------------------|


 Guitar Solo 2
   E   Q.    +H                  +E     Q.         Q      Q
|-----------------------------|---------------------------------|
|-----------------------------|---------------------------------|
|--9s=11----(11)--------------|-(11)---11-----------------9-----|
|--9s=11----(11)--------------|-(11)---11---------11------9-----|
|--7s==9-----(9)--------------|--(9)----9---------11------7-----|
|-----------------------------|--------------------9------------|
|
|  ~~~
|             |-----3-----|
| +H         +Q    +Q    +Q      +Q        +Q     +Q     +Q
|-----------------------------|---------------------------------|
|-----------------------------|---------------------------------|
|-(3)--------(3)b4r(3)b4r(3)--|--(3)b4r====(3)b4r=(3)b4r=(3)b4r=|
|-----------------------------|---------------------------------|
|-----------------------------|---------------------------------|
|-----------------------------|---------------------------------|


                ~~                           ~~~
   E   E  E  E  Q   E   E     +E   E  E   E  Q.    +E
|--------------------------|-------------------------------|
|--------------------------|-------------------------------|
|--9s=11-11-11-11------14--|-(14)s16-16--16-16----(16)-----|
|--9s=11-11-11-11------14--|-(14)s16-16--16-16----(16)-----|
|--7s==9--9--9--9--12-(12)-|-(12)s14-14--14-14----(14)-----|
|--------------------------|-------------------------------|
|
|  ~~~          ~~                    ~~~
| +Q      Q     H             +E   E +H.
|---------2-----2----------|--(2)------------------------|
|--------------------------|------/7-(7)-----------------|
|-(3)----------------------|-----------------------------|
|--------------------------|-----------------------------|
|--------------------------|-----------------------------|
|--------------------------|-----------------------------|


   E   Q.    +H        +E   Q.    Q    Q
|-------------------|----------------------|
|-------------------|----------------------|
|--9s=11----(11)----|-(11)-11----------9---|
|--9s=11----(11)----|-(11)-11----11----9---|
|--7s==9-----(9)----|--(9)--9----11----7---|
|-------------------|-------------9--------|
|
|  ~~~~~~~~~~~~~~~~~~~~~~~~
|                                 |--3---|
| +W                   +H        +Q  Q   Q
|-------------------|----------------------|
|-(7)---------------|--(7)-------(7)s5---2-|
|-------------------|----------------------|
|-------------------|----------------------|
|-------------------|----------------------|
|-------------------|----------------------|


              ~~                            ~~~~~~
  E  E  E  E  Q   E   E     +E    E   E  E  Q.        +E
|------------------------|-------------------------------------|
|------------------------|-------------------------------------|
|-9s11-11-11-11------14--|-(14)s=16--16-16-16--------(16)------|
|-9s11-11-11-11------14--|-(14)s=16--16-16-16--------(16)------|
|-7s=9--9--9--9--12-(12)-|-(12)s=14--14-14-14--------(14)------|
|------------------------|-------------------------------------|
|
|             ~~                  ~~~~
| Q     Q     H             +E    Q.        Q      Q
|------------------------|----------------------------------||
|-5s===19----19----------|-(19)-/19--------16b18p=14--------||
|------------------------|----------------------------------||
|------------------------|----------------------------------||
|------------------------|----------------------------------||
|------------------------|----------------------------------||


   Out-Chorus
     E     Q.         +H          +E   Q.        Q     Q
||-----------------------------|-------------------------------|
||o----------------------------|-------------------------------|
||---9s===11---------(11)------|-(11)-11---------------9-------|
||---9s===11---------(11)------|-(11)-11--------11-----9-------|
||o--7s====9----------(9)------|--(9)--9--------11-----7-------|
||-----------------------------|-----------------9-------------|
|
|                      ~~~~~~                    ~~~~~~
|    Q         Q       H          +E   Q      E  Q.       S  S
||--19b21-----19b21---19b21----|-(19)-21b22--21-21b23r===21p19-|
||o----------------------------|-------------------------------|
||-----------------------------|-------------------------------|
||-----------------------------|-------------------------------|
||o----------------------------|-------------------------------|
||-----------------------------|-------------------------------|


                     ~~~                                ~~~~~
   E  E     E     E  Q    E   E     +E   E     E  E     Q.             +E
|--------------------------------|--------------------------------------------|
|--------------------------------|--------------------------------------------|
|--9s11----11----11-11-------14--|-(14)s16----16-16----16-------------(16)----|
|--9s11----11----11-11-------14--|-(14)s16----16-16----16-------------(16)----|
|--7s=9-----9-----9--9---12-(12)-|-(12)s14----14-14----14-------------(14)----|
|--------------------------------|--------------------------------------------|
|
|                             1
|  ~~~               ~~~
|  |-----3-----|
|  Q     Q     Q     Q.      +E     +E   E     E  S  S  E     E  Q
|-18----19----18-----------------|------------14-14----------14-------------|
|-------------------19------(19)-|-(19)-17b19-------14-17b19----17b19-------|
|--------------------------------|------------------------------------------|
|--------------------------------|------------------------------------------|
|--------------------------------|------------------------------------------|
|--------------------------------|------------------------------------------|


   E     Q.         +H        +E   Q.          Q     Q
|--------------------------|------------------------------|
|--------------------------|------------------------------|
|--9s===11---------(11)----|-(11)-11-----------------9----|
|--9s===11---------(11)----|-(11)-11----------11-----9----|
|--7s====9----------(9)----|--(9)--9----------11-----7----|
|--------------------------|-------------------9----------|
|
|            ~~~~~
|                                              |---3----|
|  Q         H.               +Q       Q      +Q   Q    Q
|-19b21-----19b21----------|-(19)-----21b22r=(21)-19---18-|
|--------------------------|------------------------------|
|--------------------------|------------------------------|
|--------------------------|------------------------------|
|--------------------------|------------------------------|
|--------------------------|------------------------------|


                  ~~~~                            ~~~
   E  E   E   E   Q       E   E     +E   E  E  E  Q.    +E
|--------------------------------|--------------------------------|
|--------------------------------|----------------------------o---|
|--9s11--11--11--11----------14--|-(14)s16-16-16-16----(16)-------|
|--9s11--11--11--11----------14--|-(14)s16-16-16-16----(16)-------|
|--7s=9---9---9---9------12-(12)-|-(12)s14-14-14-14----(14)--o----|
|--------------------------------|--------------------------------|
|
|         1
|  ~~~                               ~~~~~
|  Q     +Q      +E   Q.             W
|--------------------14----------|-----------------------------||
|-19----(19)----(19)-------------|--19------------------------o||
|--------------------------------|-----------------------------||
|--------------------------------|-----------------------------||
|--------------------------------|----------------------------o||
|--------------------------------|-----------------------------||

4. Last Rose of Summer

i dont found the tab anywhere sorry
only get the solos part
Intro [A]:

(0:00 - 0:17)

|---------------------------------------------------------------------|
|----------------------------------------4s8--8h10p8---7h9p7----------|
|---------------5------------3-----5-4-3-------------9-------7--------|
|------2------4---3s5-7--3-5---5-3-----------------------------5h7p5--|
|--3h5----3h5---------------------------------------------------------|
|---------------------------------------------------------------------|

------------------------0---|
------------------(1)-x-1---|
----5----------7--(2)-x-2---|
5h7---7s9h11p9----(2)-x-2---|
----------------------x-----|
----------------------------|

Solo After Chorus 1 [D]:

(1:20 - 1:36)

|-17^^^^-18p15-----------------17------------------------------------------|
|--------------17-15--16-18-19----20-16--17-------------16-----------------|
|-------------------------------------------15-17-15-17----17--15----------|
|-----------------------------------------------------------------17--(15)-|
|--------------------------------------------------------------------------|
|--------------------------------------------------------------------------|

Solo After Chorus 2 [E]:

(2:39 - 2:55)

|-19^^^^^-20p17-----------------18------------------------------------------|
|---------------19-17--17-19-20----21-17--18-------------17----19-----------|
|--------------------------------------------16-18-16-18----17----17--------|
|--------------------------------------------------------------------14-12^^|
|---------------------------------------------------------------------------|
|---------------------------------------------------------------------------|

5Let Us Prey/Call for the Priest"
Tunning E A D G B E

 Intro
 Use vibrato throughout

  D                  G             D                   A
 Guitar 1
E[-------------------------------------------------------------------|
B[-------------------------------------15-15-------15-\-10----(10)---|
G[-14-14-14------14-\-12----(12)---/14-------------------------------|
D[-------------------------------------------------------------------|
A[-------------------------------------------------------------------|
E[-------------------------------------------------------------------|
 [Guitar 2
E[-------------------------------------------------------------------|
B[-------------------------------------------------------------------|
G[-11-11-11------11-\-7-----(7)----/11-11-11-------11-\-9-----(9)----|
D[-------------------------------------------------------------------|
A[-------------------------------------------------------------------|
E[-------------------------------------------------------------------|
 [Guitar 3
E[---------------------------------------------------------------------|
B[---------------------------------------------------------------------|
G[---------------------------------------------------------------------|
D[-12-12-12------12-\-9-----(9)----/12-12-12-------12-\-7-----(7)------|
A[---------------------------------------------------------------------|
E[---------------------------------------------------------------------|

   A#
  Guitar 1
E[---------------------------------------|
B[---------------------------------------|
G[-------3-----3/7-----7--10-7--10/15--\-|
D[-3---3----3-------8--------------------|
A[---5-----------------------------------|
E[---------------------------------------|
 [Guitar 2
E[---------------------------------17--\-|
B[---------------11----11/15----17-------|
G[-7---7-10-7-10----10-------15----------|
D[---8-----------------------------------|
A[---------------------------------------|
E[---------------------------------------|

   G
  Guitar 1
E[-------------------------------------------|
B[-------------------------------------------|
G[-------5----5/9-----9-----9-12-9-12/17--\--|
D[---------5-------10----10------------------|
A[-3---3-------------------------------------|
E[---3---------------------------------------|
 [Guitar 2
E[------------------------------------20--\--|
B[--------------13----13------17---17--------|
G[-------9----9----12------------17----------|
D[---------10--------------------------------|
A[-7---7-------------------------------------|
E[---8---------------------------------------|

   D                      C           G
  Guitar 1
E[------------------------------------------------|
B[------------------------------------------------|
G[-7-------(7)-----------\5----(5)----4----(4)----|
D[------------------------------------------------|
A[------------------------------------------------|
E[------------------------------------------------|
 [Guitar 2
E[------------------------------------------------|
B[------------------------------------------------|
G[-14-----(14)-----------\9----(9)----7----(7)----|
D[------------------------------------------------|
A[------------------------------------------------|
E[------------------------------------------------|
 [Guitar 3
E[------------------------------------------------|
B[------------------------------------------------|
G[-11-----(11)------------\12--(12)---12---(12)---|
D[------------------------------------------------|
A[------------------------------------------------|
E[------------------------------------------------|

  Guitar 1
E[------------------------------------------|
B[------------------------------------------|
G[-11---9---/14-------11---9-----(9)--------|
D[------------------------------------------|
A[------------------------------------------|
E[------------------------------------------|
 [Guitar 2
E[------------------------------------------|
B[------------------------------------------|
G[------------------------------------------|
D[-7----7---/14-------7----7-----(7)--------|
A[------------------------------------------|
E[------------------------------------------|
 [Guitar 3
E[-14---12--/17-------14---12----(12)-------|
B[------------------------------------------|
G[------------------------------------------|
D[------------------------------------------|
A[------------------------------------------|
E[------------------------------------------|
 [Guitar 4
E[------------------------------------------|
B[------------------------------------------|
G[------------------------------------------|
D[-2----2----7-6-5----2----2----7-6-5-------|
A[-0----0----5-4-3----0----0----5-4-3-------|
E[------------------------------------------|

  Guitar 1
E[-----------------------------------------------------------|
B[-----------------------------------------------------------|
G[-11---9---/14----\9-/15--------------(15)------------------|
D[-----------------------------------------------------------|
A[-----------------------------------------------------------|
E[-----------------------------------------------------------|
 [Guitar 2
E[-----------------------------------------------------------|
B[-----------------------------------------------------------|
G[-----------------------------------------------------------|
D[-7----7---/14----\7-/15--------------(15)------------------|
A[-----------------------------------------------------------|
E[-----------------------------------------------------------|
 [Guitar 3
E[-14---12--/17----\12/18--------------(18)------------------|
B[-----------------------------------------------------------|
G[-----------------------------------------------------------|
D[-----------------------------------------------------------|
A[-----------------------------------------------------------|
E[-----------------------------------------------------------|
 [Guitar 4
E[------------------------------18-22b--------(22)-------\---|
B[---------------------------18------------------------------|
G[-----------------------------------------------------------|
D[-----------------------------------------------------------|
A[-----------------------------------------------------------|
E[-----------------------------------------------------------|
 [Guitar 5
E[-----------------------------------------------------------|
B[-----------------------------------------------------------|
G[-----------------------------------------------------------|
D[-2----2----7-6-5-4-3--------(3)----------------------------|
A[-0----0----5-4-3-2-1--------(1)----------------------------|
E[-----------------------------------------------------------|


 Main Riff

E------------------------------------------|
B------------------------------------------|
G-------5-7-------7-5-------5-7-7-5---7-5--|
D-------5-7-------7-5-------5-7-7-5-7-7-5--|
A-0-5-7-----0-5-7-----0-5-7---------7------|
E------------------------------------------|

E------------------------------------------|
B------------------------------------------|
G-------5-7-------7-5-------5-7-7-5--------|
D-------5-7-------7-5-------5-7-7-5---2----|
A-0-5-7-----0-5-7-----0-5-7---------7-0----|
E------------------------------------------|

E------------------------------------------|
B------------------------------------------|
G-------5-7-------7-5-------5-7-7-5---7-5--|
D-------5-7-------7-5-------5-7-7-5-7-7-5--|
A-0-5-7-----0-5-7-----0-5-7---------7------|
E------------------------------------------|


E------------------------------------------------|
B------------------------------------------------|
G-------5-7-------7-5-------5-7------------------|
D-------5-7-------7-5-------5-7-7-5---2----(2)---|
A-0-5-7-----0-5-7-----0-5-7---------7-0----(0)---|
E------------------------------------------------|


E--------------|
B--------------|
G--------------|
D-2------------|
A-0-----4------|
E-------2------|

 Verse Riff
  [------------PM------------]
    h     h   h     h   h     h
E------------------------------------------|
B------------------------------------------|
G------------------------------------------|
D-2-4-4-2-4-2-4-4-2-4-2-4-4-2--------------|
A-2-2-2-2-2-2-2-2-2-2-2-2-2-2---2-0-----5--|
E-----------------------------------0-2----|

  [------------PM------------]
    h     h   h     h   h     h
E----------------------------------------------------|
B----------------------------------------------------|
G----------------------------------------------------|
D-2-4-4-2-4-2-4-4-2-4-2-4-4-2---------------------7--|
A-2-2-2-2-2-2-2-2-2-2-2-2-2-2---2-0---4-2-0---4-x-5--|
E-------------------------------------0-2-----0-2-x--|

  [------------PM------------]
    h     h   h     h   h     h
E------------------------------------------|
B------------------------------------------|
G------------------------------------------|
D-2-4-4-2-4-2-4-4-2-4-2-4-4-2--------------|
A-2-2-2-2-2-2-2-2-2-2-2-2-2-2---2-0-----5--|
E-----------------------------------0-2----|

  [------------PM------------]
    h     h   h     h   h     h
E------------------------------------------|
B------------------------------------------|
G------------------------------------------|
D-2-4-4-2-4-2-4-4-2-4-2-4-4-2---2----(2)---|
A-2-2-2-2-2-2-2-2-2-2-2-2-2-2---2----(2)---|
E-------------------------------0----(0)---|


E------------------------------------|
B------------------------------------|
G-7----------------------------------|
D-7---------------3-----------/------|
A-5---------------3-----------/------|
E-----------------1-----------/------|

 Rpt main riff
 Rpt Verse
 Rpt main riff

E-------------------------------------|
B-------------------------------------|
G-------------------------------------|
D-2-----2-----2-----2-----2-----------|
A-0-----0-----0-----0-----0-----------|
E----3-----3-----0-----3-----3--2--0--|

E-------------------------------------|
B-------------------------------------|
G-------------------------------------|
D-4--4--4--4--4-----4--4--4--5--6-----|
A-2--0--2--0--2-----2--0--2--3--4-----|
E----------------2--------------------|

 Mid 8
 [--------------------Pm----------------------------------------------|
E---------------------------------------------------------------------|
B---------------------------------------------------------------------|
G---------------------------------------------------------------------|
D-5-7-----5-7-----5-7-----5-7-----5-7-----5-7---7p5-6p4-5p3-----------|
A-0-0-0-0-0-0-0-0-0-0-0-0-0-0-0-0-0-0-0-0-0-0-0----0---0--------------|
E---------------------------------------------------------------------|
                                                 Rpt 3 X

 [--------------------Pm----------------------------------------------|
E---------------------------------------------------------------------|
B---------------------------------------------------------------------|
G---------------------------------------------------------------3-----|
D-5-7-----5-7-----5-7-----5-7-----5-7-----5-7---7p5-6p4-5p3-4p2-3-----|
A-0-0-0-0-0-0-0-0-0-0-0-0-0-0-0-0-0-0-0-0-0-0-0----0---0---0----1-----|
E---------------------------------------------------------------1-----|

 Harmonized guitar solo
   D                 G             D                 A
  Guitar 1
E[--------------------------------------------------------|
B[--------------------------------------------------------|
G[-11-11-11--11-9-11-12------------11-11-11--11-9-11\9----|
D[--------------------------------------------------------|
A[--------------------------------------------------------|
E[--------------------------------------------------------|
 [Guitar 2
E[--------------------------------------------------------|
B[--------------------------------------------------------|
G[-7--7--7---7--6-7--4----4-4----4/7--7--7---7--6-7-\2----|
D[--------------------------------------------------------|
A[--------------------------------------------------------|
E[--------------------------------------------------------|
 [Guitar 3
E[-------------------15------------------------------12---|
B[--------------------------------------------------------|
G[-14-14-14--14-1414---------------14-14-14--14-1414\-----|
D[--------------------------------------------------------|
A[--------------------------------------------------------|
E[--------------------------------------------------------|

  A#         C
  Guitar 1
E[--------------------------|
B[--------------------------|
G[---10-7-10---12-11-12/14--|
D[--------------------------|
A[--------------------------|
E[--------------------------|
 [Guitar 2
E[--------------------------|
B[--------------------------|
G[-7---------9--------------|
D[--------------------------|
A[--------------------------|
E[--------------------------|
 [Guitar 3
E[--------------------------|
B[--------------------------|
G[-8---------10-------------|
D[--------------------------|
A[--------------------------|
E[--------------------------|
                             Rpt

E--------------------------------------------------|
B--------------------------------------------------|
G--------------------------------------------------|
D-9--------(9)--------------2-------2------2-------|
A-7--------(7)--------------0-------0------0--4----|
E-0--------(0)--------------------------------2----|

 Rpt verse
 Rpt main riff
 Rpt main riff 4 X for guitar solo backing.

 Twin guitar lead
  Guitar 1
E[-----------------------------10---------------------12br-10---|
B[------10----10-12------10-------12------10----10-10-----------|
G[-9-11----11-------9-11----11-------9-11----11-----------------|
D[--------------------------------------------------------------|
A[--------------------------------------------------------------|
E[--------------------------------------------------------------|
 [Guitar 2
E[--------------------------------------------------------------|
B[--------------------------------------------------------------|
G[-----------------------------7----------------------9br--7----|
D[------7----7--9--------7--------9-------7-----7--7------------|
A[-7-9-----9--------7-9-----9--------7-9-----9------------------|
E[--------------------------------------------------------------|
 [Guitar 3
E[--------------------------------------------------------------|
B[--------------------------------------------------------------|
G[--------------------------------------------------------------|
D[-4-----------(4)-------------------4-----------(4)------------|
A[-2-----------(2)-------------------2-----------(2)------------|
E[--------------------------------------------------------------|

 Guitar 1
E[-----------------------------10---------------10-12-------10-12/14-|
B[------10----10-12------10-------12------10-11-------10-12----------|
G[-9-11----11-------9-11----11-------9-11----------------------------|
D[-------------------------------------------------------------------|
A[-------------------------------------------------------------------|
E[-------------------------------------------------------------------|
 [Guitar 2
E[-------------------------------------------------------------------|
B[-------------------------------------------------------------------|
G[-----------------------------7----------------7--9--------7--9-/11-|
D[------7----7--9--------7--------9-------7--9--------7--9-----------|
A[-7-9-----9--------7-9-----9--------7-9-----------------------------|
E[-------------------------------------------------------------------|
 [Guitar 3
E[-------------------------------------------------------------------|
B[-------------------------------------------------------------------|
G[-------------------------------------------------------------------|
D[-4------------(4)------------------4-------4-------4-------4-------|
A[-2------------(2)------------------2-------2-------2-------2-------|
E[-------------------------------------------------------------------|


  Guitar 1
   h    h    h    h    h     h     h     h  h
E[---------------------------------------------------|
B[---------------------------------------------------|
G[-12p0-14p0-12p0-11p0-12p00-14p00-12p00-11-12p11\9--|
D[---------------------------------------------------|
A[---------------------------------------------------|
E[---------------------------------------------------|
 [Guitar 2
 [ h    h    h    h    h     h     h     h  h
E[---------------------------------------------------|
B[-12p0-13p0-11p0-10p0-12p00-13p00-12p00-10-12p10\8--|
G[---------------------------------------------------|
D[---------------------------------------------------|
A[---------------------------------------------------|
E[---------------------------------------------------|
 [ Guitar 3
E[---------------------------------------------------|
B[---------------------------------------------------|
G[---------------------------------------------------|
D[-9----------------------------------------------9--|
A[-7-------------------------------------------9--7--|
E[-0-------------------------------------------7--0--|Rpt


  Guitar 1
   h    h    h    h    h     h     h     h  h
E[-------------------------------------------------------|
B[-13p0-15p0-13p0-12p0-13p00-15p00-13p00-12-13p12-10-----|
G[-------------------------------------------------------|
D[-------------------------------------------------------|
A[-------------------------------------------------------|
E[-------------------------------------------------------|
 [Guitar 2
 [ h    h    h    h    h     h     h     h  h
E[-12p0-13p0-11p0-10p0-12p00-13p00-12p00-10-12p10\8------|
B[-------------------------------------------------------|
G[-------------------------------------------------------|
D[-------------------------------------------------------|
A[-------------------------------------------------------|
E[-------------------------------------------------------|
 [Guitar 3
E[-------------------------------------------------------|
B[-------------------------------------------------------|
G[-------------------------------------------------------|
D[-2----------------------------------------------2------|
A[-0-------------------------------------------2--0------|
E[---------------------------------------------0---------|


  Guitar 1
   h    h    h    h    h     h     h     h  h                    ~~~~
E[-------------------------------------------------------------------|
B[-------------------------------------------------------------------|
G[-12p0-14p0-12p0-11p0-12p00-14p00-12p00-11-12p11\9-8---7------------|
D[----------------------------------------------------7---10-9-7-9---|
A[-------------------------------------------------------------------|
E[-------------------------------------------------------------------|
 [ h    h    h    h    h     h     h     h  h
 [Guitar 2                                                       ~~~~
E[-------------------------------------------------------------------|
B[-12p0-13p0-11p0-10p0-12p00-13p00-12p00-10-12p10\8-8-7--------------|
G[------------------------------------------------------9-8----7-8---|
D[-----------------------------------------------------------9-------|
A[-------------------------------------------------------------------|
E[-------------------------------------------------------------------|
 [ Guitar 3
E[---------------------------------------------------|
B[---------------------------------------------------|
G[---------------------------------------------------|
D[-9----------------------------------------------9--|
A[-7-------------------------------------------9--7--|
E[-0-------------------------------------------7--0--|


E-------------------------------------|
B-------------------------------------|
G-------------------------------------|
D-4--4--4--4--4-----4--4--4--5--6-----|
A-2--0--2--0--2-----2--0--2--3--4-----|
E----------------2--------------------|


 Rpt Mid 8 riff section
 Rpt verse
 Rpt main riff

 Ending
                                Delay effect
E------------------------------------------|
B------------------------------------------|
G-----------------3----(3)-----------------|
D-7p5-6p4-5p3-4p2-3----(3)----2--2--2--2---|
A----0---0---0----1----(1)----0--0--0--0---|
E-----------------1----(1)-----------------|


6. Raw Deal
Intro(7x):
E-|----------------------------------------------------|
B-|----------------------------------------------------|
G-|*----------------5---7----------------------5------*|
D-|*--7-7-5---7p5---5---7--------7-7-5---7p5---5---7--*|
A-|-0-------------7------------0-------------7-----7---|
E-|----------------------------------------------------|

Bridge 1 (1x):
E-|----------------------------------|
B-|----------------------------------|
G-|-----------------5----------------|
D-|---7-7-5---7p5---5-------5--------|
A-|-0-------------7-----5-7---7-6-5--|
E-|----------------------------------|

Verse Rhythm(6x):
E-|----------------------------------------------------------------|
B-|----------------------------------------------------------------|
G-|*--------------------------------------------------------------*|
D-|*-----------------------------------------------5--------------*|
A-|---7-7-5-7---------7-7-5-----------7-7-5-7------5---------------|
E-|-0---------------0-------7-6-5---0--------------3---6-5-0-3-5---|

Bridge 2 (2x):
E-|--------------------------------------------------------------------|
B-|-----------------------------------------------------1st-----2nd----|
G-|-----------------------------5----------------------|-------|-------|
D-|---7-7-5---7-------7-7-5---7-------7-7-5---7-5---5--|-------|-7---5-|
A-|-0-------0-------0-------0-------0-------0-----7----|-0---3-|-5---3-|
E-|----------------------------------------------------|-------|-------|

Then:
*********** Verse Rhythm(4x)
*********** Bridge 2 (2x)

ThePartIDontKnowHowToCallIt 1 (3x):
E-|-----------------------------------------------------|
B-|-----------------------------------------------------|
G-|*-5----------5-------5---7---7b--(9)---r---(7)--5h7-*|
D-|*-3-------0--3----0--3---7--------------------------*|
A-|-----------------------------------------------------|
E-|-----------------------------------------------------|

TheRestOfThePartIDontKnowHowToCallIt (1x):
E-|-----------------------------------------------------|
B-|-----------------------------------------------------|
G-|-5-------7b(9)-7p5---5-------------------------------|
D-|-3-----------------7----7-5---5----------------------|
A-|----------------------------7-----7-6-5-7-5---5------|
E-|--------------------------------------------8---8-7--|

Solo Rhythm (2x):

  First Part(6x):
E-|---------------------------------|
B-|---------------------------------|
G-|*-------------------------------*|
D-|*-2-2---2-2---2-2-----------2~--*|
A-|--2-2---2-2---2-2----------------|
E-|--0-0---0-0---0-0---0-2h3-0------|

   Second Part(1x):
E-|-----------------------------------------------------------------|
B-|-----------------------------------------------------------------|
G-|-----------------------------------------------------------------|
D-|-5-5---5-5---5-5-----5---5---5---7-7---7-7---7-7-----7---7---7---|
A-|-5-5---5-5---5-5-----5---5---5---7-7---7-7---7-7-----7---7---7---|
E-|-3-3---3-3---3-3-----3---3---3---5-5---5-5---5-5-----5---5---5---|

Then:
*********** ThePartIDontKnowHowToCallIt(1x)

Then: (you MUST listen that to catch the rhythm!)
E-|-----------------------------------------------------------------|
B-|-----------------------------------------------------------------|
G-|-5------5-7-7-5-7~----5---5-------------------5~-----------------|
D-|-3----------------------7------7~----5---5----5~--------5--------|
A-|---------------------------------------7------------5-7---7-6-5--|
E-|-----------------------------------------------------------------|

And then again:
*********** Verse Rhythm (4x)
*********** Bridge 2 (2x)

And the last riff(8x):
E-|--------------------------------------------------------------------|
B-|--------------------------------------------------------------------|
G-|*--5-----7-----5-----7---5----------5-----7-----5-----7---5---------|
D-|*--5-----7-----5-----7---5----------5-----7-----5-----7---5---------|
A-|-0-----0-----0-----0-------5-6-7--0-----0-----0-----0-------5-6-7---|
E-|--------------------------------------------------------------------|

E-|--------------------------------------------------------------------|
B-|--------------------------------------------------------------------|
G-|---5-----7-----5-----7---5-----------------------------------------*|
D-|---5-----7-----5-----7---5-------7/9-9-9-9\7-7-7-7\5-5-5-5---------*|
A-|-0-----0-----0-----0-------5-8-7---------------------------5-6-7----|
E-|--------------------------------------------------------------------|

Outro(1x):
E-|--------------------------------------------------------------------|
B-|--------------------------------------------------------------------|
G-|---5-----7-----5-----7---5----------5-----7-----5-----7---5---------|
D-|---5-----7-----5-----7---5----------5-----7-----5-----7---5---------|
A-|-0-----0-----0-----0-------5-6-7--0-----0-----0-----0-------5-6-7---|
E-|--------------------------------------------------------------------|

E-|----------------------------------|
B-|----------------------------------|
G-|---5-----7-----5-----7---5--------|
D-|---5-----7-----5-----7---5--------|
A-|-0-----0-----0-----0-------5-8-7--|
E-|----------------------------------|

E-|-------------------------------------------------------|
B-|-------------------------------------------------------|
G-|-7/-9-9-9-9-7-7-7-7-5-5-5-5-4-4-4--------------2-2-----|
D-|-7/-9-9-9-9-7-7-7-7-5-5-5-5-4-4-4--------------2-2-----|
A-|-5/-7-7-7-7-5-5-5-5-3-3-3-3-2-2-2--------------0-0-----|
E-|-------------------------------------------------------|


7. Here Come the Tears
Tune Gtr to E


Chords used in the accoustic bit
|----0-------0------0-------|
|----0-------3------0-------|
|----0-------2------0-------|
|----2-------0------2-------|
|----2--------------3-------|
|----0----------------------|

Riff A
|---------------------------------------|
|---------------------------------------|
|-------------------------------7-6-----|
|--9--9--7-9--9--4--5-4-5--4-5--5-4-----|
|--7--7--5-7--7--2--3-2-3--2-3----------|
|---------------------------------------|

Riff B
|-------------------|
|-------------------|
|--4--4---2--4------|
|--4--4---2--4------|
|--2--2---0--2------|
|-------------------|


8. Dissident Aggressor
Intro
With reverbed pick scrapes etc.

   Guitar 1  Gradual fade in
E[-----------------------------------------------------------------|
B[-----------------------------------------------------------------|
G[-----------------------------------------------------------------|
D[-----------------------------------------------------------------|
A[-----------------------------------------------------------------|
E[-0-0-0-0-0-0-0-0-0-0-0-0-0-0-0-0-0-0-0-0-0-0-0-0-0-0-0-0-0-0-0-0-|
 [
 [ Guitar 2  Gradual fade in (probably backward guitar)
E[-----------------------------------------------------------------|
B[-----------------------------------------------------------------|
G[-----------------------------------------------------------------|
D[-2----------------------(2)-----------------(2)------------------|
A[-2----------------------(2)-----------------(2)------------------|
E[-0----------------------(0)-----------------(0)------------------|


Main riff

----------------------------------------------|     h  [-PM-] p   [-PM-]  h  [-PM-] p [PM]
E---------------------------------------------|
B---------------------------------------------|
G---------------------------------------------|
D------------------------------------------2--|
A--0--2----------2-------0--2--------------0--|
E--0--0-0-0-0-3b-0-0-0-0-0--0-0-0-0-3b-0-3----| RPT 2 X on own before drums enter.
                                               RPt 2 X before vocals enter
                                               RPT 3 X for verse.


Riff at end of verse

     h  [-PM-] p                    ~~~
E---------------------------------------|
B---------------------------------------|
G-----------------------------------4---|
D------------------/5---4---4--0--------|
A--0--2--------------------------2------|
E--0--0-0-0-0-3b-0----------------------|

Chorus
Light palm mute through out.

    h         h         h
E------------------------------------------|
B------------------------------------------|
G------------------------------------------|
D------------------------------------------|
A--5-7-7-7-7-5-7-7-7-7-5-7-7-7-7-7---------|
E--0-0-0-0-0-0-0-0-0-0-0-0-0-0-0-0-5--6--7-| \
                                             \
                                              RPT these 2 riffs 2 X
   h         h                               /
E------------------------------------------| /
B------------------------------------------|
G------------------------------------------|
D-----------------------------------5------|
A--5-7-7-7-7-5-7-7-7-7--------5---5--------|
E--0-0-0-0-0-0-0-0-0-0-5-6--7---7----------|

End of second chorus into guitar solo

    h         h
E------------------------------------------------------|
B------------------------------------------------------|
G--------------------------------------------------5---|
D-----------------------------------5--------5---5-----|
A--5-7-7-7-7-5-7-7-7-7--------5---5---5-6--7---7-------|
E--0-0-0-0-0-0-0-0-0-0-5-6--7---7----------------------|

 Backing for solo

   [---------PM----------------]       [-------PM----------------------------|
E----------------------------------------------------------------------------|
B----------------------------------------------------------------------------|
G------------------------------------------------------------------------5---|
D------------------------------------------------------------------5---5-----|
A--------------------------------5-6--7---------------------5-6--7---7-------|
E--3-5-5-5-5-3-5-5-5-5-3-5-5-5-5--------3-5-5-5-5-3-5-5-5-5------------------|
RPT 4 X

End guitar solo by playing a D power chord then straight into the breakdown.

Breakdown

   Guitar 1 [--PM--]      [-PM--]           [PM]      [PM]

E[----------------------------------------------------------------|
B[----------------------------------------------------------------|
G[--9\-7-/9---------9\-7-/9---------9\-7-/9--4-/5----/12-\11------|
D[--9\-7-/9---------9\-7-/9---------9\-7-/9--4-/5----/12-\11------|
A[--7\-5-/7---------7\-5-/7---------7\-5-/7--2-/3----/10-\9-------|
E[----------0-0-0-0---------0-0-0-0---------------0-0-------0-0---|
 [
 [
 [ Guitar 2
 [
E[----------------------------------------------------------------|
B[----------------------------------------------------------------|
G[--9\-7-/9---(9)---9\-7-/9---(9)---9\-7-/9--4-/5----/12-\11------|
D[--9\-7-/9---(9)---9\-7-/9---(9)---9\-7-/9--4-/5----/12-\11------|
A[--7\-5-/7---(7)---7\-5-/7---(7)---7\-5-/7--2-/3----/10-\9-------|
E[----------------------------------------------------------------| RPT 2 X


Rpt chorus to end.

All the song in this album was made for other guitar players not for me
I only changes the part’s that i thing will be sound better thanks all the metalmaniacs
long live judas priest
from:ju.da.s
Metalgod.jp@hotmail.com
comments
We did not receive enough feedback on this tab! Please rate:
print report bad tab
1 2 3 4 5
I want to post or [tab]
guest
You may want to rate the tab now too:
select rating
Please do not post tabs as comments. Select "correction" instead!