Oops, an error
Loading. Please wait.

Take These Chains Bass Tab

391 views 3 this week
no commentswrite comment
1 2 3 4 5
excellent!
x 1
Autoscroll
+/-
esc
set tempo
stop
Contributor
Difficulty
intermediate
WARNING: You are trying to view
                                    content from Ultimate-Guitar.com
                                    in an unauthorized application,
                                    which is prohibited.

                                    Please use an official Ultimate
                                    Guitar Tabs application for iPhone,
                                    iPad or Android to access legitimate
                                    chords, guitar, bass, and drum tabs
                                    from Ultimate-Guitar.com database.

                                    Type "ultimate guitar tabs" in Apple
                                    App Store's or Android Market's
                                    search to find the application.
-----------------------------------------------------------------------------
		                  
               (Take These) Chains - Judas Priest (BASS)
            
-----------------------------------------------------------------------------
Tabbed by: Scotto10

Tuning: Standard

=============================================================================

                                                  
Bass



G||-------|-------|-------|-------|-------|-------|-------|-------|
D||-------|-------|-------|-------|-------|-------|-------|-------|
A||-------|-------|-------|-------|-------|-------|-------|-------|
E||-------|-------|-------|-------|-------|-------|-------|-------|


  H.           E  E     W                   Q    Q.     E  E  E   
---------------------|-------------------|-----------------------|
---------------------|-------------------|-----------------------|
---------------------|-------------------|-----------------------|
------------------4--|--L----------------|--L-----------4-----4--|


  W                   Q    H        E  E     W                 
-------------------|----------------------|-------------------|
-------------------|----------------------|-------------------|
-------------------|----------------------|-------------------|
--L----------------|--L----------------4--|--L----------------|


  Q    Q.     E  E  E     W                   Q    H        E  E   
-----------------------|-------------------|----------------------|
-----------------------|-------------------|----------------------|
-----------------------|-------------------|----------------------|
--L-----------4-----4--|--L----------------|--L----------------3--|


  H        Q.     E     H        E  E  E  E     H        Q.     E   
---------------------|-----------------------|---------------------|
---------------------|-----------------------|---------------------|
---------------------|--------------2--------|---------------------|
--L--------L------2--|--L--------2-----2--1--|--L--------L------0--|


  H        Q.     E     E  E  E  E  Q    Q        H        Q.     E   
---------------------|-------------------------|---------------------|
---------------------|-------------------------|---------------------|
------------------2--|--L--4--4--2--4----L\----|------------------4--|
--L--------L---------|-------------------------|---------------------|


  E  E  E  E  E  Q.        E  E  E  E  H           Q.     Q    E  E  E   
------------------------|-----------------------|-----------------------|
------------------------|-----------------------|-----------------------|
--L--6--6--4--6---------|--6-----6--------------|---------7----7--7--7--|
------------------------|-----------------------|--4--------------------|


  E  E  E  E  E  E  E  E     E  E  E  E  E  E  E  E   
--------------------------|--------------------------|
--------------------------|--------------------------|
--7--7--7--7--7--7--7--4--|--L--4--4--4--4-----2--4--|
--------------------------|-----------------4--------|


  E  E  E  E  E  E  E  E     E  E  E  Q    E  E  E     E  E  E  E  E  E  E  E   
--------------------------|-------------------------|--------------------------|
--------------------------|-------------------------|--------------------------|
--L--4--4--6--6--6--6--6--|-------------------------|-----------------------4--|
--------------------------|--4--4--4--0----0--0--0--|--0--0--0--0--0--0--0-----|


  E  E  E  E  E  E  E  E     E  E  E  E  E  E  E  E   
--------------------------|--------------------------|
--------------------------|--------------------------|
--L--4--4--4--4-----2--4--|--L--4--4--6--6--6--6-----|
-----------------4--------|-----------------------4--|


  E  E  E  E  E  E  E  E     E  E  E  E  E  E  E  E   
--------------------------|--------------------------|
--------------------------|--------------------------|
--------------------------|--------------------------|
--L--4--4--4--4--2--L--4--|--L--4--4--4--4--2--L--0--|


  E  E  E  E  E  E  E  E     E  E  E  E  E  E  E  E   
--------------------------|--------------------------|
--------------------------|--------------------------|
--------------------------|--------------------------|
--L--0--0--0--0--0--0--0--|--0--0--0--0--0--2-----4--|


  E  E  E  E  E  E  E  E     E  E  E  E  E  E  E  E   
--------------------------|--------------------------|
--------------------------|--------------------------|
--------------------------|--------------------------|
--L--4--4--4--4--2--L--4--|--L--4--4--4--4--2--L--0--|


  E  E  E  E  E  E  E  E     E  E  E  E  E  E  E  E   
--------------------------|--------------------------|
--------------------------|--------------------------|
--------------------------|--------------2-----------|
--L--0--0--0--0--0--0--0--|--0--0--0--0-----4-----3--|


  E  E  E  E  E  E  E  E     E  E  E  E  E  E  E  E   
--------------------------|--------------------------|
--------------------------|--------------------------|
--------------------------|--------------------------|
--L--3--3--3--3--3--3--2--|--L--2--2--2--2--2--2--1--|


  E  E  E  E  E  E  E  E     E  E  E  E  E  E  E  E     E  E  E  E  Q    Q      
--------------------------|--------------------------|-------------------------|
--------------------------|--------------------------|-------------------------|
--------------------------|-----------------------2--|--L--4--4--2--4----L\----|
--L--1--1--1--1--1--1--0--|--L--0--0--0--0--0--0-----|-------------------------|


  H        Q.     E     E  E  E  E  E  Q.        E  E  E  E  H         
---------------------|------------------------|-----------------------|
---------------------|------------------------|-----------------------|
------------------4--|--L--6--6--4--6---------|--6-----6--------------|
---------------------|------------------------|-----------------------|


  Q.     Q    E  E  E     E  E  E  E  E  E  E  E     E  E  E  E  E  E  E  E   
-----------------------|--------------------------|--------------------------|
-----------------------|--------------------------|--------------------------|
---------7----7--7--7--|--7--7--7--7--7--7--7--4--|--L--4--4--4--4-----2--4--|
--4--------------------|--------------------------|-----------------4--------|


  E  E  E  E  E  E  E  E     E  E  E  Q    E  E  E     E  E  E  E  E  E  E  E   
--------------------------|-------------------------|--------------------------|
--------------------------|-------------------------|--------------------------|
--L--4--4--6--6--6--6--6--|-------------------------|-----------------------4--|
--------------------------|--4--4--4--0----0--0--0--|--0--0--0--0--0--0--0-----|


  E  E  E  E  E  E  E  E     E  E  E  E  E  E  E  E   
--------------------------|--------------------------|
--------------------------|--------------------------|
--L--4--4--4--4-----2--4--|--L--4--4--6--6--6--6--6--|
-----------------4--------|--------------------------|


  E  E  E  E  E  E  E  E     E  E  E  E  E  E  E  E     E  E  Q    E  E  Q     
--------------------------|--------------------------|------------------------|
--------------------------|--------------------------|------------------------|
--------------------------|--------------------------|------------------------|
--0--0--0--0--0--0--0--0--|--0--0--0--0--0--0--0--0--|--0--0-------2--2-------|


  E  E  E  E  Q    Q       E  E  E  E  E  E  E  E     E  E  E  E  E  E  E  E   
------------------------|--------------------------|--------------------------|
------------------------|--------------------------|--------------------------|
------------------------|--------------------------|-----------------------4--|
-----4--2--2--4----2----|--0--0--0--0--0--0--0--0--|--0--0--0--0--0--0--0-----|


  E  E  E  E  E  E  E  E     E  E  E  E  H           E  E  E  E  E  E  E  E   
--------------------------|-----------------------|--------------------------|
--------------------------|-----------------------|--------------------------|
--L--4--4--4--4--4--4--4--|--6-----6--------------|--------------------------|
--------------------------|-----------------------|--4--4--4--4--4--4--4--4--|


  E  E  E  E  E  E  E  E     E  E  E  E  E  E  E  E   
--------------------------|--------------------------|
--------------------------|--------------------------|
--------------------------|--------------------------|
--4--4--4--4--2--2--2--2--|--0--0--0--0--0--0--0--0--|


  E  E  E  E  E  E  E  E     E  E  E  E  E  E  E  E   
--------------------------|--------------------------|
--------------------------|--------------------------|
--------------------------|--------------1--1--1--1--|
--0--0--0--0--0--2-----4--|--L--4--4--4--------------|


  E  E  E  E  E  E  E  E     E  E  E  E  E  E  E  E   
--------------------------|--------------------------|
--------------------------|--------------------------|
--2--2--2--2--------------|--------------------------|
--------------4--2-----0--|--L--0--0--0--0--0--0--0--|


  E  E  E  E  E  E  E  E     E  E  E  E  E  E  E  E   
--------------------------|--------------------------|
--------------------------|--------------------------|
--------6-----4--2--------|--------------------------|
--0--0-----------------3--|--L--3--3--3--3--3--3--2--|


  E  E  E  E  E  E  E  E     E  E  E  E  E  E  E  E   
--------------------------|--------------------------|
--------------------------|--------------------------|
--------------------------|--------------------------|
--L--2--2--2--2--2--2--1--|--L--1--1--1--1--1--1--0--|


  E  E  E  E  E  E  E  E     E  E  E  E  Q    Q        H        Q.     E   
--------------------------|-------------------------|---------------------|
--------------------------|-------------------------|---------------------|
-----------------------2--|--L--4--4--2--4----L\----|------------------4--|
--L--0--0--0--0--0--0-----|-------------------------|---------------------|


  E  E  E  E  Q    Q       E  E  E  E  H           Q.     Q    E  E  E   
------------------------|-----------------------|-----------------------|
------------------------|-----------------------|-----------------------|
--L--6--6--4--6---------|--6-----6--------------|---------7----7--7--7--|
------------------------|-----------------------|--4--------------------|


  E  E  E  E  E  E  E  E     E  E  E  E  E  E  E  E   
--------------------------|--------------------------|
--------------------------|--------------------------|
--7--7--7--7--7--7--7--4--|--L--4--4--4--4-----2--4--|
--------------------------|-----------------4--------|


  E  E  E  E  E  E  E  E     E  E  E  Q    E  E  E     E  E  E  E  E  E  E  E   
--------------------------|-------------------------|--------------------------|
--------------------------|-------------------------|--------------------------|
--L--4--4--6--6--6--6--6--|-------------------------|-----------------------4--|
--------------------------|--4--4--4--0----0--0--0--|--0--0--0--0--0--0--0-----|


  E  E  E  E  E  E  E  E     E  E  E  E  E  E  E  E     Q.     Q    E  E  E   
--------------------------|--------------------------|-----------------------|
--------------------------|--------------------------|-----------------------|
--L--4--4--4--4-----2--4--|--L--4--4--6--6--6--6--6--|---------7----7--7--7--|
-----------------4--------|--------------------------|--4--------------------|


  E  E  E  E  E  E  E  E     E  E  E  E  E  E  E  E   
--------------------------|--------------------------|
--------------------------|--------------------------|
--7--7--7--7--7--7--7--4--|--L--4--4--4--4-----2--4--|
--------------------------|-----------------4--------|


  E  E  E  E  E  E  E  E     E  E  E  Q    E  E  E     E  E  E  E  E  E  E  E   
--------------------------|-------------------------|--------------------------|
--------------------------|-------------------------|--------------------------|
--L--4--4--6--6--6--6--6--|-------------------------|-----------------------4--|
--------------------------|--4--4--4--0----0--0--0--|--0--0--0--0--0--0--0-----|


  E  E  E  E  E  E  E  E     E  E  E  E  E  E  E  E     Q.     Q    E  E  E   
--------------------------|--------------------------|-----------------------|
--------------------------|--------------------------|-----------------------|
--L--4--4--4--4-----2--4--|--L--4--4--6--6--6--6--6--|---------7----7--7--7--|
-----------------4--------|--------------------------|--4--------------------|


  E  E  E  E  E  E  E  E     E  E  E  E  E  E  E  E   
--------------------------|--------------------------|
--------------------------|--------------------------|
--7--7--7--7--7--7--7--4--|--L--4--4--4--4-----2--4--|
--------------------------|-----------------4--------|


  E  E  E  E  E  E  E  E     E  E  E  Q    E  E  E   
--------------------------|-------------------------|
--------------------------|-------------------------|
--L--4--4--6--6--6--6--6--|-------------------------|
--------------------------|--4--4--4--0----0--0--0--|


  E  E  E  E  E  E  E  E    
--------------------------||
--------------------------||
-----------------------4--||
--0--0--0--0--0--0--0-----||




Duration Legend
---------------
W - whole
H - half
Q - quarter
E - 8th
S - 16th
T - 32nd
X - 64th
. - note dotted
|-n-|  - n-tuplets


Tablature Legend
----------------
L - tied note
x - dead note
g - grace note
(n) - ghost note
> - accentuded note
NH - natural harmonic
AH - artificial harmonic
TH - tapped harmonic
SH - semi harmonic
PH - pitch harmonic
h - hammer on
p - pull off
b - bend
br - bendRelease
pb - preBend
pbr - preBendRelease
brb - bendReleaseBend
\n/ - tremolo bar dip
\n - tremolo bar dive
-/n - tremolo bar Release up
/n\ - tremolo bar inverted dip
/n - tremolo bar return
-\n - tremolo bar Release down
S - shift slide
s - legato slide
/ -  slide into from below or out of upwards
\ -  slide into from above or out of downwards
~ - vibrato
W - wide vibrato
tr - trill
TP - tremolo picking
T - tapping
S - slap
P - pop
< - fade in
^ - brush up
v - brush down
comments
We did not receive enough feedback on this tab! Please rate:
1 2 3 4 5
I want to post or [tab]
guest
You may want to rate the tab now too:
select rating
Please do not post tabs as comments. Select "correction" instead!