Oops, an error
Loading. Please wait.

Take These Chains Tab

ver2
ver2

Whole song

Interactive

More versions @911Tabs.com
452 views 1 this week
no commentswrite comment
1 2 3 4 5
excellent!
x 1
Autoscroll
+/-
esc
set tempo
stop
Contributor
Difficulty
intermediate
Hey! There's an official Ultimate Guitar app which is ideal
for learning songs when you're away from computer. Get the app
WARNING: You are trying to view
                                    content from Ultimate-Guitar.com
                                    in an unauthorized application,
                                    which is prohibited.

                                    Please use an official Ultimate
                                    Guitar Tabs application for iPhone,
                                    iPad or Android to access legitimate
                                    chords, guitar, bass, and drum tabs
                                    from Ultimate-Guitar.com database.

                                    Type "ultimate guitar tabs" in Apple
                                    App Store's or Android Market's
                                    search to find the application.
-----------------------------------------------------------------------------
                                  
                (Take These) Chains - Judas Priest (GUITAR)
            
-----------------------------------------------------------------------------
Tabbed by: Scotto10

Tuning: Standard

=============================================================================

      
Guitar 1



           E  E  E  E  E  E  E  E     E  E  E  E  E  E  E  E   
E||-----|--------------------------|--------------------------|
B||-----|--------------------------|--------------------------|
G||-----|--------------------------|--------------------------|
D||-----|--------------------------|--------------------------|
A||-----|--------------------------|--------------------------|
E||-----|--4--4--4--4--4--4--4--4--|--4--4--4--4--4--4--4--4--|


  E  E  E  E  E  E  E  E     E  E  E  E  E  E  E  E   
--------------------------|--------------------------|
--------------------------|--------------------------|
--------------------------|--------------------------|
--------------------------|--------------------------|
--------------------------|--------------------------|
--4--4--4--4--4--4--4--4--|--4--4--4--4--4--4--4--4--|


  E  E  E  E  E  E  E  E     E  E  E  E  E  E  E  E   
--------------------------|--------------------------|
--------------------------|--------------------------|
--------------------------|--------------------------|
--------------------------|--------------------------|
--------------------------|--------------------------|
--4--4--4--4--4--4--4--4--|--4--4--4--4--4--4--4--4--|


  E  E  E  E  E  E  E  E     E  E  E  E  E  E  E  E   
--------------------------|--------------------------|
--------------------------|--------------------------|
--------------------------|--------------------------|
--------------------------|--------------------------|
--------------------------|--------------------------|
--4--4--4--4--4--4--4--4--|--4--4--4--4--4--4--4--4--|


  E  E  E  E  E  E  E  E     E  E  E  E  E  E  E  E   
--------------------------|--------------------------|
--------------------------|--------------------------|
--------------------------|--------------------------|
--------------------------|--------------------------|
--------------------------|--------------------------|
--4--4--4--4--4--4--4--4--|--4--4--4--4--4--4--4--4--|


  E  E  E  E  E  E  E  E     E  E  E  E  E  E  E  E   
--------------------------|--------------------------|
--------------------------|--------------------------|
--------------------------|--------------------------|
--------------------------|--------------------------|
--------------------------|--------------------------|
--4--4--4--4--4--4--4--4--|--4--4--4--4--4--4--4--4--|


  E  E  E  E  E  E  E  E     E  E  E  E  E  E  E  E   
--------------------------|--------------------------|
--------------------------|--------------------------|
--------------------------|--------------------------|
--------------------------|--------------------------|
--------------------------|--------------------------|
--4--4--4--4--4--4--4--4--|--4--4--4--4--4--4--4--4--|


  E  E  E  E  E  E  E  E     E  E  E  E  E  E  E  E     H        Q.     E   
--------------------------|--------------------------|---------------------|
--------------------------|--------------------------|---------------------|
--------------------------|--------------------------|---------------------|
--------------------------|--------------------------|---------------------|
--------------------------|--------------------------|---------------------|
--4--4--4--4--4--4--4--4--|--4--4--4--4--4--4--4--3--|--L--------L------2--|


  H        Q.     E     H        Q.     E     H.           E  E   
---------------------|---------------------|---------------------|
---------------------|---------------------|---------------------|
---------------------|---------------------|------------------4--|
---------------------|---------------------|------------------4--|
---------------------|---------------------|------------------2--|
--L--------L------1--|--L--------L------0--|--L------------L-----|


  E  E  E  E  Q    Q        H.           E  E     E  E  E  E  Q    Q     
-------------------------|---------------------|------------------------|
-------------------------|---------------------|------------------------|
--L--6--6--4--6----L\----|------------------6--|--L--8--8--6--8---------|
--L--6--6--4--6----L\----|------------------6--|--L--8--8--6--8---------|
--L--4--4--2--4----L\----|------------------4--|--L--6--6--4--6---------|
-------------------------|---------------------|------------------------|


  E  E  E  E  H           Q.     H        E     H.           E  E   
-----------------------|---------------------|---------------------|
-----------------------|---------------------|---------------------|
--8-----8--------------|---------------------|---------------------|
--8-----8--------------|---------9--------L--|--L------------L--6--|
--6-----6--------------|--6------7--------L--|--L------------L--4--|
-----------------------|--4------------------|---------------------|


              PM PM                                                 
  H        E  E  E  E     Q.     H        E     Q.     H        E   
-----------------------|---------------------|---------------------|
-----------------------|---------------------|---------------------|
-----------------------|---------------------|---------------------|
--L--------L--------6--|--L------8--------L--|---------9--------L--|
--L--------L--------4--|--L------6--------L--|--6------7--------L--|
--------------4--7-----|---------------------|--4------------------|


                                    PM PM                           
  H.           E  E     H        E  E  E  E     Q.     H        E   
---------------------|-----------------------|---------------------|
---------------------|-----------------------|---------------------|
---------------------|-----------------------|---------------------|
--L------------L--6--|--L--------L--------6--|--L------8-----------|
--L------------L--4--|--L--------L--------4--|--L------6--------6--|
---------------------|--------------4--7-----|------------------4--|


  W                   H        E  E  E  E     W                 
-------------------|-----------------------|-------------------|
-------------------|-----------------------|-------------------|
-------------------|-----------------------|-------------------|
-------------------|-----------------------|-------------------|
--L----------------|--L-----------4-----2--|--L----------------|
--L----------------|--L-----------2-----0--|--L----------------|


  H        E  E  E  E     W                   H        E  E  E  E   
-----------------------|-------------------|-----------------------|
-----------------------|-------------------|-----------------------|
-----------------------|-------------------|-----------------------|
-----------------------|-------------------|-----------------------|
--L-----------4-----6--|--L----------------|--L-----------4-----2--|
--L-----------2-----4--|--L----------------|--L-----------2-----0--|


  W                   H        E  E  E  E     H.           E  E   
-------------------|-----------------------|---------------------|
-------------------|-----------------------|---------------------|
-------------------|-----------------------|---------------------|
-------------------|--------------------5--|--L------------L--4--|
--L----------------|--L--------2-----------|---------------------|
--L----------------|--L-----------4--------|---------------------|


  H.           E  E     H.           E  E     H.           E  E   
---------------------|---------------------|---------------------|
---------------------|---------------------|---------------------|
---------------------|---------------------|---------------------|
--L------------L--3--|--L------------L--2--|--L------------L--4--|
---------------------|---------------------|------------------2--|
---------------------|---------------------|---------------------|


  E  E  E  E  Q    Q        H.           E  E     E  E  E  E  Q    Q      
-------------------------|---------------------|-------------------------|
-------------------------|---------------------|-------------------------|
-------------------------|---------------------|-------------------------|
--L--6--6--4--6----L\----|------------------6--|--L--8--8--6--8----L\----|
--L--4--4--2--4----L\----|------------------4--|--L--6--6--4--6----L\----|
-------------------------|---------------------|-------------------------|


  E  E  E  H        E     Q.     H        E     H.           E  E   
-----------------------|---------------------|---------------------|
-----------------------|---------------------|---------------------|
-----------------------|---------------------|---------------------|
--8-----8--------------|---------9--------L--|--L------------L--6--|
--6-----6--------------|--6------7--------L--|--L------------L--4--|
-----------------------|--4------------------|---------------------|


              PM PM                                                 
  H        E  E  E  E     Q.     H        E     Q.     H        E   
-----------------------|---------------------|---------------------|
-----------------------|---------------------|---------------------|
-----------------------|---------------------|---------------------|
--L--------L--------6--|--L------8--------L--|---------9--------L--|
--L--------L--------4--|--L------6--------L--|--6------7--------L--|
--------------4--7-----|---------------------|--4------------------|


                                    PM PM                           
  H.           E  E     H        E  E  E  E     Q.     H        E   
---------------------|-----------------------|---------------------|
---------------------|-----------------------|---------------------|
---------------------|-----------------------|---------------------|
--L------------L--6--|--L--------L--------6--|--L------8-----------|
--L------------L--4--|--L--------L--------4--|--L------6--------6--|
---------------------|--------------4--7-----|------------------4--|


  PM PM PM PM PM PM PM PM    PM PM PM PM PM PM PM PM                           
  E  E  E  E  E  E  E  E     E  E  E  E  E  E  E  E     E  E  Q    E  E  Q     
--------------------------|--------------------------|------------------------|
--------------------------|--------------------------|------------------------|
--------------------------|--------------------------|------------------------|
--------------------------|--------------------------|------------------------|
--------------------------|--------------------------|-----2-------4--4-------|
--0--0--0--0--0--0--0--0--|--0--0--0--0--0--0--0--0--|--0--0-------2--2-------|


                          PM PM PM PM PM PM PM PM    PM PM PM PM PM PM PM     
  E  E  Q    Q    Q       E  E  E  E  E  E  E  E     E  E  E  E  E  E  E  E   
-----------------------|--------------------------|--------------------------|
-----------------------|--------------------------|--------------------------|
-----------------------|--------------------------|--------------------------|
-----------------------|--------------------------|-----------------------6--|
-----6--4----6----4----|--------------------------|-----------------------4--|
-----4--2----4----2----|--0--0--0--0--0--0--0--0--|--0--0--0--0--0--0--0-----|


                                              PM PM PM PM PM PM PM PM  
  W                   E  E  E  H        E     E  E  E  E  E  E  E  E   
-------------------|-----------------------|--------------------------|
-------------------|-----------------------|--------------------------|
-------------------|-----------------------|--------------------------|
--L----------------|--8-----8--------------|--------------------------|
--L----------------|--6-----6--------------|--6--6--6--6--6--6--6--6--|
-------------------|-----------------------|--4--4--4--4--4--4--4--4--|


  PM PM PM PM PM PM PM PM    PM PM PM PM PM PM PM PM  
  E  E  E  E  E  E  E  E     E  E  E  E  E  E  E  E   
--------------------------|--------------------------|
--------------------------|--------------------------|
--------------------------|--------------------------|
--------------------------|--------------------------|
--6--6--6--6--4--4--4--4--|--2--2--2--2--2--2--2--2--|
--4--4--4--4--2--2--2--2--|--0--0--0--0--0--0--0--0--|


  PM PM PM PM PM PM    PM    PM                                         
  E  E  E  E  E  E  E  E     H        H           H        E  E  E  E   
--------------------------|--------------------|-----------------------|
--------------------------|--------------------|-----------------------|
--------------------------|--------------------|-----------------------|
--------------------------|-----------3--------|--4--------------------|
--2--2--2--2--2--4-----6--|--L--------1--------|--2-----------------2--|
--0--0--0--0--0--2-----4--|--L-----------------|-----------4--2-----0--|


     PM PM PM PM PM PM PM    PM PM                                          
  E  E  E  E  E  E  E  E     E  E  E  E  E  E  E  E     H.           E  E   
--------------------------|--------------------------|---------------------|
--------------------------|--------------------------|---------------------|
--------------------------|--------------------------|---------------------|
--------------------------|--------8-----6--4-----5--|--L------------L--4--|
--L--2--2--2--2--2--2--2--|--2--2--6-----4--2--------|---------------------|
--L--0--0--0--0--0--0--0--|--0--0--------------------|---------------------|


  H.           E  E     H.           E  E     H.           E  E   
---------------------|---------------------|---------------------|
---------------------|---------------------|---------------------|
---------------------|---------------------|---------------------|
--L------------L--3--|--L------------L--2--|--L------------L--4--|
---------------------|---------------------|------------------2--|
---------------------|---------------------|---------------------|


  E  E  E  E  Q    Q        H.           E  E     E  E  E  E  Q    Q      
-------------------------|---------------------|-------------------------|
-------------------------|---------------------|-------------------------|
-------------------------|---------------------|-------------------------|
--L--6--6--4--6----L\----|------------------6--|--L--8--8--6--8----L\----|
--L--4--4--2--4----L\----|------------------4--|--L--6--6--4--6----L\----|
-------------------------|---------------------|-------------------------|


  E  E  E  H        E     Q.     H        E     H.           E  E   
-----------------------|---------------------|---------------------|
-----------------------|---------------------|---------------------|
-----------------------|---------------------|---------------------|
--8-----8--------------|---------9--------L--|--L------------L--6--|
--6-----6--------------|--6------7--------L--|--L------------L--4--|
-----------------------|--4------------------|---------------------|


              PM PM                                                 
  H        E  E  E  E     Q.     H        E     Q.     H        E   
-----------------------|---------------------|---------------------|
-----------------------|---------------------|---------------------|
-----------------------|---------------------|---------------------|
--L--------L--------6--|--L------8--------L--|---------9--------L--|
--L--------L--------4--|--L------6--------L--|--6------7--------L--|
--------------4--7-----|---------------------|--4------------------|


                                    PM PM                           
  H.           E  E     H        E  E  E  E     Q.     H        E   
---------------------|-----------------------|---------------------|
---------------------|-----------------------|---------------------|
---------------------|-----------------------|---------------------|
--L------------L--6--|--L--------L--------6--|--L------8--------L--|
--L------------L--4--|--L--------L--------4--|--L------6--------L--|
---------------------|--------------4--7-----|---------------------|


                                                          PM PM     
  Q.     H        E     H.           E  E     H        E  E  E  E   
---------------------|---------------------|-----------------------|
---------------------|---------------------|-----------------------|
---------------------|---------------------|-----------------------|
---------9--------L--|--L------------L--6--|--L--------L--------6--|
--6------7--------L--|--L------------L--4--|--L--------L--------4--|
--4------------------|---------------------|--------------4--7-----|


  Q.     H        E     Q.     H        E     H.           E  E   
---------------------|---------------------|---------------------|
---------------------|---------------------|---------------------|
---------------------|---------------------|---------------------|
--L------8--------L--|---------9--------L--|--L------------L--6--|
--L------6--------L--|--6------7--------L--|--L------------L--4--|
---------------------|--4------------------|---------------------|


              PM PM                                                 
  H        E  E  E  E     Q.     H        E     Q.     H        E   
-----------------------|---------------------|---------------------|
-----------------------|---------------------|---------------------|
-----------------------|---------------------|---------------------|
--L--------L--------6--|--L------8--------L--|---------9--------L--|
--L--------L--------4--|--L------6--------L--|--6------7--------L--|
--------------4--7-----|---------------------|--4------------------|


                                    PM PM                           
  H.           E  E     H        E  E  E  E     Q.     H        E   
---------------------|-----------------------|---------------------|
---------------------|-----------------------|---------------------|
---------------------|-----------------------|---------------------|
--L------------L--6--|--L--------L--------6--|--L------8--------L--|
--L------------L--4--|--L--------L--------4--|--L------6--------L--|
---------------------|--------------4--7-----|---------------------|


  Q.     H        E     H.           E  E    
---------------------|---------------------||
---------------------|---------------------||
---------------------|---------------------||
---------9--------L--|--L------------L--6--||
--6------7--------L--|--L------------L--4--||
--4------------------|---------------------||




=============================================================================

                 
Guitar 2



             W                   H        E  Q    E     W                 
E||-------|-------------------|----------------------|-------------------|
B||-------|--0----------------|--L-------------------|-------------------|
G||-------|--4----------------|--L-----------3----1--|--L----------------|
D||-------|--6----------------|--L-----------4----2--|--L----------------|
A||-------|-------------------|----------------------|-------------------|
E||-------|-------------------|----------------------|-------------------|


  H        E  Q    E     W                   H        E  Q    E   
----------------------|-------------------|----------------------|
-------------------0--|--L----------------|--L-------------------|
--L-----------3----4--|--L----------------|--L-----------3----1--|
--L-----------4----6--|--L----------------|--L-----------4----2--|
----------------------|-------------------|----------------------|
----------------------|-------------------|----------------------|


  W                   H        E  Q    E     W                 
-------------------|----------------------|-------------------|
-------------------|-------------------0--|--L----------------|
--L----------------|--L-----------3----4--|--L----------------|
--L----------------|--L-----------4----6--|--L----------------|
-------------------|----------------------|-------------------|
-------------------|----------------------|-------------------|


  H        E  Q    E     W                   H        E  Q    E   
----------------------|-------------------|----------------------|
--L-------------------|-------------------|-------------------0--|
--L-----------3----1--|--L----------------|--L-----------3----4--|
--L-----------4----2--|--L----------------|--L-----------4----6--|
----------------------|-------------------|----------------------|
----------------------|-------------------|----------------------|


  W                   H        E  Q    E     W                 
-------------------|----------------------|-------------------|
--L----------------|--L-------------------|-------------------|
--L----------------|--L-----------3----1--|--L----------------|
--L----------------|--L-----------4----2--|--L----------------|
-------------------|----------------------|-------------------|
-------------------|----------------------|-------------------|


  H        Q    E  E     H        Q.     E     H        Q.     E   
----------------------|---------------------|---------------------|
----------------------|---------------------|---------------------|
--L-------------------|---------------------|---------------------|
--L-------------------|---------------------|---------------------|
----------------------|---------------------|---------------------|
-------------------3--|--L--------L------2--|--L--------L------1--|


  H        Q.     E     H.           E  E     E  E  E  E  Q    Q      
---------------------|---------------------|-------------------------|
---------------------|---------------------|-------------------------|
---------------------|------------------4--|--L--6--6--4--6----L\----|
---------------------|------------------4--|--L--6--6--4--6----L\----|
---------------------|------------------2--|--L--4--4--2--4----L\----|
--L--------L------0--|--L------------L-----|-------------------------|


  H.           E  E     E  E  E  E  Q    Q       E  E  E  E  H         
---------------------|------------------------|-----------------------|
---------------------|------------------------|-----------------------|
------------------6--|--L--8--8--6--8---------|--8-----8--------------|
------------------6--|--L--8--8--6--8---------|--8-----8--------------|
------------------4--|--L--6--6--4--6---------|--6-----6--------------|
---------------------|------------------------|-----------------------|


                                                          PM PM     
  Q.     H        E     H.           E  E     H        E  E  E  E   
---------------------|---------------------|-----------------------|
---------------------|---------------------|-----------------------|
---------------------|---------------------|-----------------------|
---------9--------L--|--L------------L--6--|--L--------L--------6--|
--6------7--------L--|--L------------L--4--|--L--------L--------4--|
--4------------------|---------------------|--------------4--7-----|


  Q.     H        E     Q.     H        E     H.           E  E   
---------------------|---------------------|---------------------|
---------------------|---------------------|---------------------|
---------------------|---------------------|---------------------|
--L------8--------L--|---------9--------L--|--L------------L--6--|
--L------6--------L--|--6------7--------L--|--L------------L--4--|
---------------------|--4------------------|---------------------|


              PM PM                                PM PM PM PM           
  H        E  E  E  E     Q.     H        E     E  E  E  E  E  E  E  E   
-----------------------|---------------------|--------------------------|
-----------------------|---------------------|--------------------------|
-----------------------|---------------------|--------------------------|
--L--------L--------6--|--L------8-----------|--------------------------|
--L--------L--------4--|--L------6--------6--|--L--------------4-----6--|
--------------4--7-----|------------------4--|--L--4--4--4--4--2-----4--|


     PM PM PM PM                PM PM PM PM PM PM     
  E  E  E  E  E  E  E  E     E  E  E  E  E  E  E  E   
--------------------------|--------------------------|
--------------------------|--------------------------|
--------------------------|--------------------------|
--------------------------|--------------------------|
--L--------------4-----2--|--L--------------------2--|
--L--4--4--4--4--2-----0--|--L--0--0--0--0--0--0--0--|


     PM PM PM PM                PM PM PM PM           
  E  E  E  E  E  E  E  E     E  E  E  E  E  E  E  E   
--------------------------|--------------------------|
--------------------------|--------------------------|
--------------------------|--------------------------|
--------------------------|--------------------------|
--L--------------4-----6--|--L--------------4-----6--|
--L--0--0--0--0--2-----4--|--L--4--4--4--4--2-----4--|


     PM PM PM PM                PM PM PM PM PM PM     
  E  E  E  E  E  E  E  E     E  E  E  E  E  E  E  E   
--------------------------|--------------------------|
--------------------------|--------------------------|
--------------------------|--------------------------|
--------------------------|--------------------------|
--L--------------4-----2--|--L--------------------2--|
--L--4--4--4--4--2-----0--|--L--0--0--0--0--0--0--0--|


     PM PM PM PM                                                       
  E  E  E  E  E  E  E  E     H.           E  E     H.           E  E   
--------------------------|---------------------|---------------------|
-----------------------4--|--L------------L--4--|--L------------L--2--|
--------------------------|---------------------|---------------------|
--------------------------|---------------------|---------------------|
--L-----------------------|---------------------|---------------------|
--L--0--0--0--0--4--------|---------------------|---------------------|


  H.           E  E     H.           E  E     E  E  E  E  Q    Q      
---------------------|---------------------|-------------------------|
--L------------L--2--|--L------------L-----|-------------------------|
---------------------|---------------------|-------------------------|
---------------------|------------------4--|--L--6--6--4--6----L\----|
---------------------|------------------2--|--L--4--4--2--4----L\----|
---------------------|---------------------|-------------------------|


  H.           E  E     E  E  E  E  Q    Q        E  E  E  H        E   
---------------------|-------------------------|-----------------------|
---------------------|-------------------------|-----------------------|
---------------------|-------------------------|-----------------------|
------------------6--|--L--8--8--6--8----L\----|--8-----8--------------|
------------------4--|--L--6--6--4--6----L\----|--6-----6--------------|
---------------------|-------------------------|-----------------------|


  Q.     H        E     H.           E   E   
---------------------|----------------------|
---------------------|----------------------|
---------------------|------------------18--|
---------9--------L--|--L------------L------|
--6------7--------L--|--L------------L------|
--4------------------|----------------------|


   E    E   E   Q      E   E   E       E      E   E   Q      E   Q        
---------------19b-----L--16-------|-------------------------------------|
------------------------------19b--|---Lpbr---L--16----------------------|
---Ls--16--------------------------|-----------------18b----16--18brb----|
-----------18----------------------|-------------------------------------|
-----------------------------------|-------------------------------------|
-----------------------------------|-------------------------------------|


   Q        E   H        E     H.           E   E   
----------------------------|----------------------|
----------------------------|----------------------|
--18brb----18\--------------|------------------18--|
----------------9--------L--|--L------------L------|
----------------7--------L--|--L------------L------|
----------------------------|----------------------|


   E    E   H         E   E       E      E   E   E   E   E  S  E  S  
------------------------------|-------------------------------------|
-------------------------19b--|---Lpbr---L--16----------------16----|
---Ls--16---------------------|-----------------18b-----18----------|
-----------18---------L-------|-------------------------------------|
------------------------------|-------------------------------------|
------------------------------|-------------------------------------|


                                 PM PM PM PM                           
   W                    H        E  E  E  E     E  E  Q    E  E  Q     
--------------------|------------------------|------------------------|
--17----------------|---L--------------------|------------------------|
--------------------|------------------------|------------------------|
--------------------|------------------------|------------------------|
--------------------|------------------------|-----2-------4--4-------|
--------------------|------------0--0--0--0--|--0--0-------2--2-------|


                          PM PM PM PM PM PM PM PM    PM PM PM PM PM PM PM     
  E  E  Q    Q    Q       E  E  E  E  E  E  E  E     E  E  E  E  E  E  E  E   
-----------------------|--------------------------|--------------------------|
-----------------------|--------------------------|--------------------------|
-----------------------|--------------------------|--------------------------|
-----------------------|--------------------------|-----------------------6--|
-----6--4----6----4----|--------------------------|-----------------------4--|
-----4--2----4----2----|--0--0--0--0--0--0--0--0--|--0--0--0--0--0--0--0-----|


  W                   E  E  E  H        E                                   
-------------------|-----------------------|-------|-------|-------|-------|
-------------------|-----------------------|-------|-------|-------|-------|
-------------------|-----------------------|-------|-------|-------|-------|
--L----------------|--8-----8--------------|-------|-------|-------|-------|
--L----------------|--6-----6--------------|-------|-------|-------|-------|
-------------------|-----------------------|-------|-------|-------|-------|


                          E  E  E  E  E  E  E  E     H.           E  E   
-------|-------|-------|--------------------------|---------------------|
-------|-------|-------|-----------------------4--|--L------------L--4--|
-------|-------|-------|--------------------------|---------------------|
-------|-------|-------|--------------------------|---------------------|
-------|-------|-------|--------------------------|---------------------|
-------|-------|-------|--------------------------|---------------------|


  H.           E  E     H.           E  E     H.           E  E   
---------------------|---------------------|---------------------|
--L------------L--2--|--L------------L--2--|--L------------L-----|
---------------------|---------------------|---------------------|
---------------------|---------------------|------------------4--|
---------------------|---------------------|------------------2--|
---------------------|---------------------|---------------------|


  E  E  E  E  Q    Q        H.           E  E     E  E  E  E  Q    Q     
-------------------------|---------------------|------------------------|
-------------------------|---------------------|------------------------|
-------------------------|---------------------|------------------------|
--L--6--6--4--6----L\----|------------------6--|--L--8--8--6--8---------|
--L--4--4--2--4----L\----|------------------4--|--L--6--6--4--6---------|
-------------------------|---------------------|------------------------|


  E  E  E  H        E     Q.     H        E     H.           E  E   
-----------------------|---------------------|---------------------|
-----------------------|---------------------|---------------------|
-----------------------|---------------------|---------------------|
--8-----8--------------|---------------------|--L------------L--6--|
--6-----6--------------|--6------2--------L--|--L------------L--4--|
-----------------------|--4------0--------L--|---------------------|


              PM PM                                                 
  H        E  E  E  E     Q.     H        E     Q.     H        E   
-----------------------|---------------------|---------------------|
-----------------------|---------------------|---------------------|
-----------------------|---------------------|---------------------|
--L--------L--------6--|--L------8--------L--|---------------------|
--L--------L--------4--|--L------6--------L--|--6------2--------L--|
--------------4--7-----|---------------------|--4------0--------L--|


                                    PM PM                           
  H.           E  E     H        E  E  E  E     Q.     H        E   
---------------------|-----------------------|---------------------|
---------------------|-----------------------|---------------------|
---------------------|-----------------------|---------------------|
------------------6--|--L--------L--------6--|--L------8--------L--|
--L------------L--4--|--L--------L--------4--|--L------6--------L--|
--L------------L-----|--------------4--7-----|---------------------|


  Q.     Q.      Q         H           E   E   E   E   
----------------19b----|---Lpb--------19--16--19--19--|
-----------------------|------------------------------|
-----------------------|------------------------------|
-----------------------|------------------------------|
--6------2-------------|------------------------------|
--4------0-------------|------------------------------|


   H         E   E   E   E    
---Lb-----------19b-----19b--|
-----------------------------|
-----------------------------|
-----------------------------|
-----------------------------|
-----------------------------|


   Q       S   S  S   S  S  S  S   S  S  S  S   S  
---Lpb----19p-16-19p-16----16---------------------|
------------------------19----19p-16----16-19p-16-|
-------------------------------------18-----------|
--------------------------------------------------|
--------------------------------------------------|
--------------------------------------------------|


   W                                                             
   Q.      E.   E    S  S  E.      Q      E   E   E   E   Q      
-------------------------------|--------------------------------|
----------16-------------------|--------------------------------|
--18-----------18b--18-16------|--16b---------------------------|
--------------------------18---|---------18--16-----------------|
-------------------------------|-----------------18--15---------|
-------------------------------|-------------------------16~----|


   PM  PM  PM  PM  PM  PM  PM  PM                                           
   E   E   E   E   E   E   E   E      S  S  S  S  S  S  S  S  S  S  Q.      
----------------------------------|----------------------------------------|
----------------------------------|----------------------------------------|
----------------------------------|-----------------------------16-18------|
----------------------------------|--------16-18-19----16-18-19------------|
--------------16--------------16--|--18-19----------19---------------------|
--16--18--19------16--18--19------|----------------------------------------|
       



  W                   W                  
-------------------|-------------------||
-------------------|-------------------||
-------------------|-------------------||
-------------------|-------------------||
-------------------|-------------------||
-------------------|-------------------||





=============================================================================

Guitar solo



                                          Q    E   E   S  S. S  S. S  E   
E||-------|-------|-------|-------|---------------------------------|
B||-------|-------|-------|-------|--------------------11-12-14-12--|
G||-------|-------|-------|-------|--------------11-13--------------|
D||-------|-------|-------|-------|----------13---------------------|
A||-------|-------|-------|-------|---------------------------------|
E||-------|-------|-------|-------|---------------------------------|


                                       PH    PH                      
   Q.       E   E     Q     E     E    E     Q     S S S S S S S S   
--14b------11------------------|---------------------7--------------|
---------------14br--12b-------|-----------------------9-7----------|
-------------------------------|---------------------------8-6---6b-|
-------------------------------|-------------------------------9----|
-------------------------------|------------------------------------|
-------------------------------|-----<>2b--<>2~---------------------|


                       PH      PH   PH   PH                   
  Q.     S S Q.        E       E    E    E    Q.      E  S S  
--------------------------|----------------------------------|
--------------------------|----------------------------------|
--------------------------|--<>4--<>6--<>6br--4b------L------|
--9------6---6~------<>6--|------------------------------4-5-|
-----------9--------------|----------------------------------|
--------------------------|----------------------------------|


                                PM PM  PM PM                
  E  S S E  S S E  S S  Q       E  E   E  E   E    Q    E   
-----------------------------|-----------------------------|
-----------------------------|------------9--12b--12----9--|
-----------------------------|--8--9--11-------------------|
--6--5-6-8--6-8-9--8-9-11----|-----------------------------|
-----------------------------|-----------------------------|
-----------------------------|-----------------------------|


            |---3---|  |-------5-------|   
  Q    E    S   S   S  E   E   E   E   E   
----------------------12--14--12----------|
--L----L\-------------------------14--12--|
-----------11h-12h-13---------------------|
------------------------------------------|
------------------------------------------|
------------------------------------------|


                        PH     PH                               
   |---6---|  |--6-|              |---3--|     |---3---|        
   S   S   S  S  S S    E      E  S   S  S  S  S   S   S  S E   
---------------------------------------------------------------|
---------------------------------------------------------------|
--13p-12p-11s-9-12-9-<>11b--<>11--9h-11p-9----10h-11p-10s-9-8--|
-------------------------------------------12------------------|
---------------------------------------------------------------|
---------------------------------------------------------------|


  H        E   Q.         H        E   Q.         H        E   Q.       
-----------------------|-----------------------|-----------------------|
--------------16\------|--------------14\------|--------------14\------|
--L--------L--15\------|--------------15\------|--------------13\------|
-----------------------|-----------------------|-----------------------|
-----------------------|-----------------------|-----------------------|
-----------------------|-----------------------|-----------------------|


  H        E   Q.                                                               
-----------------------|-------|-------|-------|-------|-------|-------|-------|
--------------12\------|-------|-------|-------|-------|-------|-------|-------|
--------------13\------|-------|-------|-------|-------|-------|-------|-------|
-----------------------|-------|-------|-------|-------|-------|-------|-------|
-----------------------|-------|-------|-------|-------|-------|-------|-------|
-----------------------|-------|-------|-------|-------|-------|-------|-------|





Duration Legend
---------------
W - whole
H - half
Q - quarter
E - 8th
S - 16th
T - 32nd
X - 64th
. - note dotted
|-n-|  - n-tuplets


Tablature Legend
----------------
L - tied note
x - dead note
g - grace note
(n) - ghost note
> - accentuded note
NH - natural harmonic
AH - artificial harmonic
TH - tapped harmonic
SH - semi harmonic
PH - pitch harmonic
h - hammer on
p - pull off
b - bend
br - bendRelease
pb - preBend
pbr - preBendRelease
brb - bendReleaseBend
\n/ - tremolo bar dip
\n - tremolo bar dive
-/n - tremolo bar Release up
/n\ - tremolo bar inverted dip
/n - tremolo bar return
-\n - tremolo bar Release down
S - shift slide
s - legato slide
/ -  slide into from below or out of upwards
\ -  slide into from above or out of downwards
~ - vibrato
W - wide vibrato
tr - trill
TP - tremolo picking
T - tapping
S - slap
P - pop
< - fade in
^ - brush up
v - brush down
comments
We did not receive enough feedback on this tab! Please rate:
print report bad tab
1 2 3 4 5
I want to post or [tab]
guest
You may want to rate the tab now too:
select rating
Please do not post tabs as comments. Select "correction" instead!