Oops, an error
Loading. Please wait.

The Ripper Tab

ver3
ver3

Whole song

More versions @911Tabs.com
3,317 views 3 this week
no commentswrite comment
1 2 3 4 5
accurate
x 3
Autoscroll
+/-
esc
set tempo
stop
Contributor
Difficulty
novice
WARNING: You are trying to view
                                    content from Ultimate-Guitar.com
                                    in an unauthorized application,
                                    which is prohibited.

                                    Please use an official Ultimate
                                    Guitar Tabs application for iPhone,
                                    iPad or Android to access legitimate
                                    chords, guitar, bass, and drum tabs
                                    from Ultimate-Guitar.com database.

                                    Type "ultimate guitar tabs" in Apple
                                    App Store's or Android Market's
                                    search to find the application.
p - pull off
h - hammer on
b - bend
r - release
\ - slide down
/ - slide up
x - palm mute

1|-------------15-------19~~~~~~-|
2|-13-15-16-13----16-13----------|
3|-------------------------------|
4|-------------------------------|
5|-------------------------------|
6|-------------------------------|
 |
 |
1|-------------12-------16~~~~~~-|
2|-10-12-13-10----13-10----------|
3|-------------------------------|
4|-------------------------------|
5|-------------------------------|
6|-------------------------------|

1|-----------------|
2|-----------------|
3|-----------------|
4|-2-2-2-2-2-2-2-2-|x8
5|-0-0-0-0-0-0-0-0-|
6|-----------------|
   x x x x x x x x

1|---------------------------------------------------------|
2|---------------------------------------------------------|
3|---------------------------------------------------------|
4|-5-5-5-5-5-5---------------------------------------------|
5|-3-3-3-3-3-3-5-5-5-5-5-5-5-5-5-5-3-3-3-3-3-3-2-2-2-2-2-2-|
6|-------------3-3-3-3-3-3-3-3-3-3-1-1-1-1-1-1-0-0-0-0-0-0-|
   x x x x x x x x x x x x x x x x x x x x x x x x x x x x

1|---------------------------------|
2|---------------------------------|
3|-------------------------2p0-0h2-|
4|-2-----2-----2-----2-------------|
5|-0-0-0-0-0-0-0-0-0-0-0-0---------|
6|---------------------------------|
     x x   x x   x x   x x

1|| ---------------------------------|
2||*---------------------------------|
3|| -------------------------2p0-0h2-|
4|| -2-----2-----2-----2-------------|x4
5||*-0-0-0-0-0-0-0-0-0-0-0-0---------|
6|| ---------------------------------|
       x x   x x   x x   x x

                                         1st Ending
1|-----------------------------------|   --------------------------------- ||
2|-----------------------------------|   ---------------5---8-7---6-5---4-*||
3|-5---------------------------------|   ---4-5-4---5-7---------7-----5--- ||
4|-5-------5-----------3-------2-----|   -7------------------------------- ||
5|-3-------5-----------3-------2-----|   ---------------------------------*||
6|---------3-----------1-------0-----|   ----------------------------------||

  2nd Ending
1|------------------------------------------|   ------------|
2|------------------------------------------|   ------------|
3|-------------------9---12-11----10-9----8-|   ------------|
4|----9-10-9---10-12-----------12------10---|x3 -12-9-12-10-|
5|-12---------------------------------------|   ------------|
6|------------------------------------------|   ------------|

1|-10b11r-8-7---8p7p0-|---8p7------7-8-10-|-10b11r-8-7---8p7p0-|
2|--------------------|-------9-10--------|--------------------|
3|--------------------|-------------------|--------------------|
4|--------------------|-------------------|--------------------|
5|--------------------|-------------------|--------------------|
6|--------------------|-------------------|--------------------|
 |
 |
1|--------------------|-------------------|--------------------|
2|--------------------|-------------------|--------------------|
3|--------------------|-------------------|--------------------|
4|-9--------9-----9---|-9-----9----7------|-9--------9-----9---|
5|-7--7---7-7-7-7-7-7-|-7-7-7-7----5------|-7---7--7-7-7-7-7-7-|
6|--------------------|-------------------|--------------------|
      x   x   x x   x     x x                   x  x   x x   x

1|---8p7----7------7-|-7b8r---7----------|---8p7----7------7-|-8p7----7----------|
2|-------10---9-10---|-----10-----8-10~~-|-------10---9-10---|-----10-----10-8-7-|
3|-------------------|-------------------|-------------------|-------------------|
4|-------------------|-------------------|-------------------|-------------------|
5|-------------------|-------------------|-------------------|-------------------|
6|-------------------|-------------------|-------------------|-------------------|
 |
 |
1|-------------------|-------------------|-------------------|-------------------|
2|-------------------|-------------------|-------------------|-------------------|
3|-------------------|-------------------|-------------------|-------------------|
4|-9----------7------|-------------------|-------------------|-------------------|
5|-7-7-7-7----5------|-7------7-----7----|-7-----7----5------|-7------7------7---|
6|-------------------|-5-5-5--5-5-5-5--5-|-5-5-5-5----3------|-5-5-5--5-5-5--5-5-|
     x x                 x x    x x    x     x x                 x x    x x    x

1|-----8-7---7-8\4-5~~~~~~~~~~-|
2|-----------------------------|
3|-9~~-----7-------------------|
4|-----------------------------|
5|-----------------------------|
6|-----------------------------|
 |
 |
1|-----------------------------|
2|-----------------------------|
3|-----------------------------|
4|-----------------------------|
5|-3-------2-------7---------5-|
6|-1-------0-------5---------3-|
   

1|---------------------------------|---------------------------------|
2|---------------------------------|---------------------------------|
3|-----------2---------------2---\\|-----------2---------------2---\\|
4|-2-4-5-4-5---5-4-2-4-5-4-5-------|-2-4-5-4-5---5-4-2-4-5-4-5-------|
5|---------------------------------|---------------------------------|
6|---------------------------------|---------------------------------|
 | x x x x x x x x x x x x x         x x x x x x x x x x x x x
 |
1|---------------------------------|---------------------------------|
2|---------------------------------|---------------------------------|
3|---------------------------------|---------------------------------|
4|-2-(                          let ring                           )-|
5|-2-(                          let ring                           )-|
6|-0-(                          let ring                           )-|

1|-----------------|-----------------|
2|-----------------|-----------------|
3|-----------3-----|-----------3---\\|
4|-3-5-6-5-6---6-5-|-3-5-6-5-6-------|
5|-----------------|-----------------|
6|-----------------|-----------------|
   x x x x x x x x   x x x x x

1|-----------------|-----------------|
2|-----------------|-----------------|
3|-----------4-----|-----------4---\\|
4|-4-6-7-6-7---7-6-|-4-6-7-6-7-------|
5|-----------------|-----------------|
6|-----------------|-----------------|
   x x x x x x x x   x x x x x

1|-----------------|-----------------|
2|-----------------|-----------------|
3|-----------5-----|-----------6-----|
4|-5-7-8-7-8---8-7-|-6-8-9-8-9---9-8-|
5|-----------------|-----------------|
6|-----------------|-----------------|
   x x x x x x x x   x x x x x x x x

1|---------------------|---------------------|
2|---------------------|---------------------|
3|---------------------|---------------9-\\\\|
4|-7-9-10-9-8-10-11-10-|-9-11-12-11-12-------|
5|---------------------|---------------------|
6|---------------------|---------------------|
   x x x  x x  x

1|-----------------|-----------------|
2|-----------------|-----------------|
3|-----------2-----|-----------2---\\|
4|-2-4-5-4-5---5-4-|-2-4-5-4-5-------|x2
5|-----------------|-----------------|
6|-----------------|-----------------|
 |
 |
1|-----------------|-----------------|
2|-----------------|-----------------|
3|-----------------|-----------2-----|
4|-2---------------|-----------2-----|x2
5|-2---------------|-----------0-----|
6|-0---------------|-----------------|

1|---------------------------------|
2|---------------------------------|
3|-------------------------2p0-0h2-|
4|-2-----2-----2-----2-------------|x4
5|-0-0-0-0-0-0-0-0-0-0-0-0---------|
6|---------------------------------|
     x x   x x   x x   x x

1|-----------------|-----------------|-----------------|-----------------|
2|-----------------|-----------------|-----------------|-----------------|
3|-----------------|---------2p0-0h2-|-----------------|---------2p0-0h2-|
4|-2-----2-----2---|---2-------------|-2-----2-----2---|---2-------------|
5|-0-0-0-0-0-0-0-0-|-0-0-0-0---------|-0-0-0-0-0-0-0-0-|-0-0-0-0---------|
6|-----------------|-----------------|-----------------|-----------------|
 |   x x   x x   x   x   x x
 |
1|-----------------|-----------------|-----------------|-----------------|
2|-5-(          let ring           )-|-4-(          let ring           )-|
3|-2-(          let ring           )-|-1-(          let ring           )-|
4|-----------------|-----------------|-----------------|-----------------|
5|-----------------|-----------------|-----------------|-----------------|
6|-----------------|-----------------|-----------------|-----------------|

1|-----------------|-----------------|-----------------|-----------------|
2|-----------------|-----------------|-----------------|-----------------|
3|-----------------|---------2p0-0h2-|-----------------|---------2p0-0h2-|
4|-2-----2-----2---|---2-------------|-2-----2-----2---|---2-------------|
5|-0-0-0-0-0-0-0-0-|-0-0-0-0---------|-0-0-0-0-0-0-0-0-|-0-0-0-0---------|
6|-----------------|-----------------|-----------------|-----------------|
 |   x x   x x   x   x   x x
 |
1|-----------------|-----------------|-----------------|-----------------|
2|-3-(          let ring           )-|-----------------|-----------------|
3|-0-(          let ring           )-|-2-(          let ring           )-|
4|-----------------|-----------------|-2-(          let ring           )-|
5|-----------------|-----------------|-0-(          let ring           )-|
6|-----------------|-----------------|-----------------|-----------------|

1|-----------------------------------|
2|-----------------------------------|
3|-5---------------------------------|
4|-5-------5-----------3-------2-----|
5|-3-------5-----------3-------2-----|
6|---------3-----------1-------0-----|

1|-----------------|-----------------|
2|---------------5-|---8-7---6-5---4-|
3|---4-5-4---5-7---|-------7-----5---|
4|-7---------------|-----------------|x2
5|-----------------|-----------------|
6|-----------------|-----------------|

1|-----------------|-----------------|
2|---------------5-|---8-7---6-5---4\|
3|---4-5-4---5-7---|-------7-----5---|
4|-7---------------|-----------------|
5|-----------------|-----------------|
6|-----------------|-----------------|

1|-----------------|------------------|------------------|------------------|
2|-3-0-3-1-0-1-0---|------------------|------------------|---1-0-1----------|
3|-----------------|------------------|------------------|---------2--------|
4|---------------2-|-(                                 )-|-2-------2--------|
5|---------------2-|-(            let ring             )-|---------0--------|
6|---------------0-|-(                                 )-|------------------|
comments
We did not receive enough feedback on this tab! Please rate:
print report bad tab
1 2 3 4 5
I want to post or [tab]
guest
You may want to rate the tab now too:
select rating
Please do not post tabs as comments. Select "correction" instead!