Oops, an error
Loading. Please wait.

The Ripper Tab

ver5
ver5
More versions @911Tabs.com
2,923 views 6 this week
no commentswrite comment
1 2 3 4 5
accurate
x 2
Autoscroll
+/-
esc
set tempo
stop
Contributor
Difficulty
Tabbers playing skills
intermediate
advanced ++
Hey! There's an official Ultimate Guitar app which is ideal
for learning songs when you're away from computer. Get the app
WARNING: You are trying to view
                                    content from Ultimate-Guitar.com
                                    in an unauthorized application,
                                    which is prohibited.

                                    Please use an official Ultimate
                                    Guitar Tabs application for iPhone,
                                    iPad or Android to access legitimate
                                    chords, guitar, bass, and drum tabs
                                    from Ultimate-Guitar.com database.

                                    Type "ultimate guitar tabs" in Apple
                                    App Store's or Android Market's
                                    search to find the application.
-------------------------------------------------------------------------------
                             THE RIPPER - Judas Priest
-------------------------------------------------------------------------------
Tabbed by: Isaias Garcia (TexasFury)

Tuning: standard

Album: Unleashed In The East (1979)


Left guitar - K.K. Downing

                                              PM PM PM PM PM PM PM PM PM PM PM PM PM PM PM PM  
     S  S  S  S  S  S  T   T  S  H            S  S  S  S  S  S  S  S  S  S  S  S  S  S  S  S   
E||----------------------------------------|--------------------------------------------------|
B||----------------20-17s-16----21~--------|--------------------------------------------------|
G||----17-19-20-17-----------18------------|--------------------------------------------------|
D||----------------------------------------|--------------------------------------------------|
A||----------------------------------------|--0--0--0--0--0--0--0--0--0--0--0--0--0--0--0--0--|
E||----------------------------------------|--------------------------------------------------|


  PM PM PM PM PM PM PM PM PM PM PM PM PM PM PM PM  
  S  S  S  S  S  S  S  S  S  S  S  S  S  S  S  S   
--------------------------------------------------|
--------------------------------------------------|
--------------------------------------------------|
--------------------------------------------------|
--0--0--0--0--0--0--0--0--0--0--0--0--0--0--0--0--|
--------------------------------------------------|


  PM PM PM PM PM PM PM PM PM PM PM PM PM PM PM PM  
  S  S  S  S  S  S  S  S  S  S  S  S  S  S  S  S   
--------------------------------------------------|
--------------------------------------------------|
--------------------------------------------------|
--------------------------------------------------|
--0--0--0--0--0--0--0--0--0--0--0--0--0--0--0--0--|
--------------------------------------------------|


  PM PM PM PM PM PM PM PM PM PM PM PM PM PM PM PM  
  S  S  S  S  S  S  S  S  S  S  S  S  S  S  S  S   
--------------------------------------------------|
--------------------------------------------------|
--------------------------------------------------|
--------------------------------------------------|
--0--0--0--0--0--0--0--0--0--0--0--0--0--0--0--0--|
--------------------------------------------------|


  PM PM PM PM PM PM PM PM PM PM PM PM PM PM PM PM    PM PM PM PM PM PM PM PM PM PM PM PM  
  S  S  S  S  S  S  S  S  S  S  S  S  S  S  S  S     S  S  S  S  S  S  S  S  S  S  S  S   
--------------------------------------------------|--------------------------------------|
--------------------------------------------------|--------------------------------------|
--------------------------------------------------|--------------------------------------|
--5--5--5--5--5--5--------------------------------|--------------------------------------|
--3--3--3--3--3--3--5--5--5--5--5--5--5--5--5--5--|--3--3--3--3--3--3--2--2--2--2--2--2--|
--------------------3--3--3--3--3--3--3--3--3--3--|--1--1--1--1--1--1--0--0--0--0--0--0--|


                                         PM PM   PM PM   PM PM   PM PM            
  S S S S S S S S S S S S S  S S  S    S S  S  S S  S  S S  S  S S  S  S  S S  S  
------------------------------------|--------------------------------------------|
------------------------------------|--------------------------------------------|
------------------------------------|--------------------------------------------|
--7-----7-----7-----7-----7s-5-5s-7-|--2-------2-------2-------2-------7p-5-5h-7-|
----0-0---0-0---0-0---0-0-----------|--0-0--0--0-0--0--0-0--0--0-0--0------------|
------------------------------------|--------------------------------------------|


    PM PM   PM PM   PM PM   PM PM                PM PM   PM PM   PM PM   PM PM            
  S S  S  S S  S  S S  S  S S  S  S  S S  S    S S  S  S S  S  S S  S  S S  S  S  S S  S  
--------------------------------------------|--------------------------------------------|
--------------------------------------------|--------------------------------------------|
--------------------------------------------|--------------------------------------------|
--2-------2-------2-------2-------7p-5-5h-7-|--2-------2-------2-------2-------7p-5-5h-7-|
--0-0--0--0-0--0--0-0--0--0-0--0------------|--0-0--0--0-0--0--0-0--0--0-0--0------------|
--------------------------------------------|--------------------------------------------|


    PM PM   PM PM   PM PM   PM PM                                                      
  S S  S  S S  S  S S  S  S S  S  S  S S  S    Q.     E  Q    E  E     Q.     E  Q     
--------------------------------------------|-----------------------|-----------------|
--------------------------------------------|-----------------------|-----------------|
--------------------------------------------|-----------------------|-----------------|
--2-------2-------2-------2-------7p-5-5h-7-|--5--------------------|-----------------|
--0-0--0--0-0--0--0-0--0--0-0--0------------|--3------5--L----5--5--|--3------2--L----|
--------------------------------------------|---------3--L----3--3--|--1------0--L----|


                                                                 PM    PM                
  E  E  E  E  E  E  E  E     E  E  Q    E  E  E  E     S S S S S S  E  S  E.  S  S S  S  
--------------------------|-------------------------|-----------------------------------|
-----------------------5--|--L--8--7----6--5-----4--|-----------------------------------|
-----4--5--4--L--5--7-----|-------------5-----5-----|----4-5----------------------------|
--7-----------------------|-------------------------|--7------------7-----7---7s-5-5s-7-|
--------------------------|-------------------------|--------0---0--0--0--0-------------|
--------------------------|-------------------------|-----------------------------------|


  PM PM PM   PM PM   PM PM   PM PM              PM PM PM   PM PM   PM PM   PM PM            
  S  S  S  S S  S  S S  S  S S  S  S  S S  S    S  S  S  S S  S  S S  S  S S  S  S  S S  S  
---------------------------------------------|---------------------------------------------|
---------------------------------------------|---------------------------------------------|
---------------------------------------------|---------------------------------------------|
-----------7-------7-------7-------7s-5-5s-7-|-----------7-------7-------7-------7s-5-5s-7-|
--0--0--0----0--0----0--0----0--0------------|--0--0--0----0--0----0--0----0--0------------|
---------------------------------------------|---------------------------------------------|


  PM PM PM   PM PM   PM PM   PM PM                                                         
  S  S  S  S S  S  S S  S  S S  S  S  S S  S    Q.     E  Q    E  E      E.  S E  E  Q     
---------------------------------------------|------------------------|-------------------|
---------------------------------------------|------------------------|-------------------|
---------------------------------------------|------------------------|-------------------|
-----------7-------7-------7-------7s-5-5s-7-|--5---------------------|-------------------|
--0--0--0----0--0----0--0----0--0------------|--3------5--L----5--5S--|--3---3-L--2--L----|
---------------------------------------------|---------3--L----3--3S--|--1---1-L--0--L----|


  E  E  E  E  E  E  E  E     E  E  Q    E  E  E  E     E  E  E  E  E  E  E  E   
--------------------------|-------------------------|--------------------------|
-----------------------5--|--L--8--7----6--5-----4--|-----------------------5--|
-----4--5--4--L--5--7-----|-------------------5-----|-----4--5--4--L--x--7-----|
--7-----------------------|-------------------------|--7-----------------------|
--------------------------|-------------------------|--------------------------|
--------------------------|-------------------------|--------------------------|


  E  E  E  E  E  E  E  E     E  E  E  E  E  E  E  E     E  E  E  E  E  E  E  E     E   E  E  E   
--------------------------|--------------------------|--------------------------|---------------|
--L--8--7-----6--5-----4--|-----------------------5--|--L--8--7-----6--5-----4--|---------------|
-----------7--------5-----|-----4--5--4--L--5--7-----|-----------7--------5-----|--7p--5--7--5--|
--------------------------|--7-----------------------|--------------------------|---------------|
--------------------------|--------------------------|--------------------------|---------------|
--------------------------|--------------------------|--------------------------|---------------|


                                                           PM PM    PM PM       
  E  E  E  E  E  E  E  E     Q.     E  E   E  E   E     E  E  E  E  E  E  Q     
--------------------------|--------------------------|-------------------------|
--9--9--9--9--9--9--9--9--|--------------------------|-------------------------|
--9--9--9--9--9--9--9--9--|--------------------------|--9--------9--------9----|
--9--9--9--9--9--9--9--9--|--9------9--9s--7--7s--9--|--9--------9--------9----|
--7--7--7--7--7--7--7--7--|--7------7--7s--5--5s--7--|--7--------7--------7----|
--------------------------|--0-----------------------|-----0--0-----0--0-------|


  PM       PM       PM PM       PM PM    PM PM    PM    PM    PM PM                
  E  E  E  E  E  E  E  E     E  E  E  E  E  E  E  E     E  E  E  E  E   E  E   E   
--------------------------|--------------------------|----------------------------|
--------------------------|--------------------------|----------------------------|
-----9--------------------|--9--------9--------9-----|-----9----------------------|
-----9--------7--7--------|--7--------7--------7-----|-----7--------7s--5--5s--7--|
-----7--------5--5--------|-----0--0-----0--0-----0--|--0-----0--0----------------|
--0--------0--------0--0--|--------------------------|----------------------------|


     PM PM    PM    PM                                                      
  E  E  E  E  E  E  E  E     H        E  E  Q       H        E  E   E   E   
--------------------------|----------------------|-------------------------|
--------------------------|----------------------|-------------------------|
--9--------9-----7-----9--|----------------------|-------------------------|
--7--------7-----5-----7--|--5--------4----------|-------------------------|
-----0--0-----0-----0-----|--3--------2--6--L----|--7--------L-------------|
--------------------------|--------------4--L----|--5--------L--2h--3s--5--|


  PM PM PM PM PM PM PM PM PM PM PM PM PM         PM PM PM PM PM PM PM PM PM PM PM PM PM       
  S  S  S  S  S  S  S  S  S  S  S  S  S  E.      S  S  S  S  S  S  S  S  S  S  S  S  S  E.    
----------------------------------------------|----------------------------------------------|
----------------------------------------------|----------------------------------------------|
----------------------------------------------|----------------------------------------------|
-----4--5--4--5--7--5--4-----4--5--4--5--7~---|-----4--5--4--5--7--5--4-----4--5--4--5--7~---|
--7-----------------------7-------------------|--7-----------------------7-------------------|
----------------------------------------------|----------------------------------------------|


  PM PM PM PM PM PM PM PM PM PM PM PM PM         PM PM PM PM PM PM PM PM PM PM PM PM PM       
  S  S  S  S  S  S  S  S  S  S  S  S  S  E.      S  S  S  S  S  S  S  S  S  S  S  S  S  E.    
----------------------------------------------|----------------------------------------------|
----------------------------------------------|----------------------------------------------|
----------------------------------------------|----------------------------------------------|
-----5--6--5--6--8--6--5-----5--6--5--6--8~---|-----6--7--6--7--9--7--6-----6--7--6--7--9\---|
--8-----------------------8-------------------|--9-----------------------9-------------------|
----------------------------------------------|----------------------------------------------|


   PMPM PM PM PM  PMPM PM  PMPM PM PM PM  PMPM PM     PMPM  PM PM PM PM PM PM                       
   S S  S  S  S   S S  S   S S  S  S  S   S S  S      S S   S  S  S  S  S  S  S  S  S  S  S   E.    
--------------------------------------------------|------------------------------------------------|
--------------------------------------------------|------------------------------------------------|
--------------------------------------------------|------------------------------------------------|
-----7--8--7--8--10-8--7-----8--9--8--9--11-9--8--|-----9--10-------10-11-10----11-12-11-12--14----|
--10----------------------11----------------------|--12-------12-13----------14-------------(14)---|
--------------------------------------------------|------------------------------------------------|


  Q    S S S S S S S S S E.      S S S S S S S S S S S S S E.      S S S S S S S S S S S S S E.    
------------------------------|---------------------------------|---------------------------------|
------------------------------|---------------------------------|---------------------------------|
------------------------------|---------------------------------|---------------------------------|
-------5-7-5-4---4-5-4-5-7~---|----4-5-4-5-7-5-4---4-5-4-5-7~---|----4-5-4-5-7-5-4---4-5-4-5-7~---|
--7------------7--------------|--7---------------7--------------|--7---------------7--------------|
--0---------------------------|---------------------------------|---------------------------------|


                                      PM PM   PM PM   PM PM   PM PM            
  S S S S S S S S S S S S S E.      S S  S  S S  S  S S  S  S S  S  S  S S  S  
---------------------------------|--------------------------------------------|
---------------------------------|--------------------------------------------|
---------------------------------|----------9-------9-------9-------9s-7-7s-9-|
----4-5-4-5-7-5-4---4-5-4-5-7~---|----------7-------7-------7-------7s-5-5s-7-|
--7---------------7--------------|--0-0--0--0-0--0--0-0--0--0-0--0------------|
---------------------------------|--------------------------------------------|


    PM PM   PM PM   PM PM   PM                  PM PM   PM     PM PM   PM PM            
  S S  S  S S  S  S S  S  S S  S S  S S  S    S S  S  S S  S S S  S  S S  S  S  S S  S  
-------------------------------------------|-------------------------------------------|
-------------------------------------------|-------------------------------------------|
--9-------9-------9-------9----------------|--9-------9----9-9-------9-----------------|
--7-------7-------7-------7----7-7s-5-5s-7-|--7-------7----7-7-------7-------7s-5-5s-7-|
--0-0--0--0-0--0--0-0--0--0-0--0-----------|--0-0--0--0-0--0-0-0--0--0-0--0------------|
-------------------------------------------|-------------------------------------------|


    PM PM   PM PM   PM PM   PM                    PM       PM               PM PM  
  S S  S  S S  S  S S  S  S S  S S  S S  S     E  S   S  S S   E   Q     E  S  S   
-------------------------------------------|--------------------------------------|
-------------------------------------------|--10-----10--L----10---L----10--------|
--9---------------9-------9----------------|---9------9--L-----9---L-----9--------|
--7-------7-------7-------7------7s-5-5s-7-|---7------7--L-----7---L-----7--------|
--0-0--0--0-0--0--0-0--0--0-0--0-----------|------0--------0----------------0--0--|
-------------------------------------------|--------------------------------------|


  E.  S E  E  H              E.  S E  E  H           E.  S E   E   Q     E  E   
-----------------------|--------------------------|----------------------------|
--9---9-L--9--L--------|--8g10---8-L--8--8--------|-----------10---L-----L-----|
--8---8-L--8--L--------|-----7---7-L--7--7--------|--9---------9---L-----L-----|
--6---6-L--6--L--------|---------5-L--5--5--------|------------7---L-----L-----|
-----------------------|--------------------------|------0-L----------------x--|
-----------------------|--------------------------|----------------------------|


  Q.     E  Q    E  E     Q.     E  Q       E  E  E  E  E  E  E  E     E  E  E  E  E  E  E  E   
-----------------------|-----------------|--------------------------|--------------------------|
-----------------------|-----------------|-----------------------5--|--L--8--7-----6--5-----4--|
-----------------------|-----------------|-----4--5--4--L--5--7-----|-----------7--------5-----|
--5--------------------|-----------------|--7-----------------------|--------------------------|
--3------5--L----5--5--|--3------2--L----|--------------------------|--------------------------|
---------3--L----3--3--|--1------0--L----|--------------------------|--------------------------|


  E  E  E  E  E  E  E  E     E  E  E  E  E  E  E  E     E  E  E  E  E  E  E  E   
--------------------------|--------------------------|--------------------------|
-----------------------5--|--L--8--7-----6--5-----4--|-----------------------5--|
-----4--5--4--L--5--7-----|-----------7--------5-----|-----4--5--4--L--5--7-----|
--7-----------------------|--------------------------|--7-----------------------|
--------------------------|--------------------------|--------------------------|
--------------------------|--------------------------|--------------------------|


                                                         
  E  E  E  E  E  E  E  E     E   E  E   E  E  E  Q       W                                         
--------------------------|---------------------------|-------------------------------------------|
--L--8--7-----6--5-----4--|---------------------------|-------------------------------------------|
-----------7--------5-----|--7p--5--7p--5-----5-------|--9----------------------------------------|
--------------------------|----------------------7----|--9----------------------------------------|
--------------------------|----------------7----------|--7----------------------------------------|
--------------------------|---------------------------|--0----------------------------------------|


  W                   E  E  E  E  Q    Q      
-------------------|------------------------||
-------------------|------------------------||
--L----------------|-----5--4--5------------||
--L----------------|--7-----------7---------||
--L----------------|------------------------||
--L----------------|------------------------||



Right guitar - Glenn Tipton


                                           PM PM PM PM PM PM PM PM PM PM PM PM PM PM PM PM  
     S  S  S  S  S  S  S  S   H            S  S  S  S  S  S  S  S  S  S  S  S  S  S  S  S   
E||-------------------------------------|--------------------------------------------------|
B||----------------17--------21~--------|--------------------------------------------------|
G||----14-16-17-14----17-14/------------|--------------------------------------------------|
D||-------------------------------------|--------------------------------------------------|
A||-------------------------------------|--0--0--0--0--0--0--0--0--0--0--0--0--0--0--0--0--|
E||-------------------------------------|--------------------------------------------------|


  PM PM PM PM PM PM PM PM PM PM PM PM PM PM PM PM  
  S  S  S  S  S  S  S  S  S  S  S  S  S  S  S  S   
--------------------------------------------------|
--------------------------------------------------|
--------------------------------------------------|
--------------------------------------------------|
--0--0--0--0--0--0--0--0--0--0--0--0--0--0--0--0--|
--------------------------------------------------|


  PM PM PM PM PM PM PM PM PM PM PM PM PM PM PM PM  
  S  S  S  S  S  S  S  S  S  S  S  S  S  S  S  S   
--------------------------------------------------|
--------------------------------------------------|
--------------------------------------------------|
--------------------------------------------------|
--0--0--0--0--0--0--0--0--0--0--0--0--0--0--0--0--|
--------------------------------------------------|


  PM PM PM PM PM PM PM PM PM PM PM PM PM PM PM PM  
  S  S  S  S  S  S  S  S  S  S  S  S  S  S  S  S   
--------------------------------------------------|
--------------------------------------------------|
--------------------------------------------------|
--------------------------------------------------|
--0--0--0--0--0--0--0--0--0--0--0--0--0--0--0--0--|
--------------------------------------------------|


  PM PM PM PM PM PM PM PM PM PM PM PM PM PM PM PM    PM PM PM PM PM PM PM PM PM PM PM PM  
  S  S  S  S  S  S  S  S  S  S  S  S  S  S  S  S     S  S  S  S  S  S  S  S  S  S  S  S   
--------------------------------------------------|--------------------------------------|
--------------------------------------------------|--------------------------------------|
--------------------------------------------------|--------------------------------------|
--5--5--5--5--5--5--------------------------------|--------------------------------------|
--3--3--3--3--3--3--5--5--5--5--5--5--5--5--5--5--|--3--3--3--3--3--3--2--2--2--2--2--2--|
--------------------3--3--3--3--3--3--3--3--3--3--|--1--1--1--1--1--1--0--0--0--0--0--0--|


                                       PM PM     PM    PM PM PM   PM       
  S S S S S S S S S S S S S  S S  S    E  S  S S S  E  S  E  S  S S  S  S  
------------------------------------|-------------------------------------|
------------------------------------|-------------------------------------|
------------------------------------|-------------------------------------|
--7-----7-----7-----7-----7s-5-5s-7-|--------2------2-----------7----5h-7-|
----0-0---0-0---0-0---0-0-----------|--0--0--0---0--0--0--0--0----0-------|
------------------------------------|-------------------------------------|


  PM PM     PM    PM PM PM   PM         PM PM     PM    PM PM PM   PM       
  E  S  S S S  E  S  E  S  S S  S  S    E  S  S S S  E  S  E  S  S S  S  S  
-------------------------------------|-------------------------------------|
-------------------------------------|-------------------------------------|
-------------------------------------|-------------------------------------|
--------2------2-----------7----5h-7-|--------2------2-----------7----5h-7-|
--0--0--0---0--0--0--0--0----0-------|--0--0--0---0--0--0--0--0----0-------|
-------------------------------------|-------------------------------------|


  PM PM     PM    PM PM PM   PM                                                           
  E  S  S S S  E  S  E  S  S S  S  S    Q    S S E  E  E  S   E.      E  S S S S E  Q     
-------------------------------------|-----------------------------|---------------------|
-------------------------------------|-----------------------------|---------------------|
-------------------------------------|-----------------------------|---------------------|
--------2------2-----------7----5h-7-|--5--------------------------|-----3---3-3---------|
--0--0--0---0--0--0--0--0----0-------|--3----5-x-5--L--5-----------|-------3-----2--L----|
-------------------------------------|-----------3--L--3--3-/13\---|--1----------0--L----|


                                                                PM    PM       PM  
  E  E  E  E  E  E  E  E     E  E  Q    E  E  Q        H        S  E  S  S S S S   
--------------------------|-------------------------|-----------------------------|
-----------------------5--|--L--8--7----6--5--5\----|-----------------------------|
-----4--5--4--L--5--7-----|-------------------------|--------------7-----5-4------|
--7-----------------------|-------------------------|--2-----------7-----5-L------|
--------------------------|-------------------------|--0--------0-----0--------0--|
--------------------------|-------------------------|-----------------------------|


           PM    PM       PM             PM    PM       PM             PM               
  H        S  E  S  S S S S     H        S  E  S  S S S S     H        S  E.  S S S  S  
-----------------------------|-----------------------------|---------------------------|
-----------------------------|-----------------------------|---------------------------|
--------------7-----5-4------|--------------7-----5-4------|--------------7---5-4------|
--2-----------7-----5-L------|--2-----------7-----5-L------|--2-----------7---5-L-2p-0-|
--0--------0-----0--------0--|--0--------0-----0--------0--|--0--------0---------------|
-----------------------------|-----------------------------|---------------------------|


                      NH                                                                          
  Q.     E  Q    E    E     Q.     E  E  E     E  E  E  E  E  E  E  E     E  E  Q    E  E  Q      
-------------------------|------------------|--------------------------|-------------------------|
-------------------------|------------------|-----------------------5--|--L--8--7----6--5--5\----|
-------------------------|------------------|-----4--5--4--L--5--7-----|-------------------------|
--5-----------------<>5--|------------------|--7-----------------------|-------------------------|
--3------5--L----L-------|--3------2--L-----|--------------------------|-------------------------|
---------3--L----L-------|--1------0--L-----|--------------------------|-------------------------|


  E  E  E  E  E  E  E  E     E  E  Q    E  E  Q        E  E  E  E  E  E  E  E   
--------------------------|-------------------------|--------------------------|
-----------------------5--|--L--8--7----6--5--5\----|-----------------------5--|
-----4--5--4--L--5--7-----|-------------------------|-----4--5--4--L--5--7-----|
--7-----------------------|-------------------------|--7-----------------------|
--------------------------|-------------------------|--------------------------|
--------------------------|-------------------------|--------------------------|


  E  E  Q    E  E  Q         E   E  Q        E     E   E   E   E   E   Q      
-------------------------|---------------|-----------------------------------|
--L--8--7----6--5--5\----|---------------|--15br--15--13--12---L--13---------|
-------------------------|---------------|-----------------------------------|
-------------------------|--12s--8-------|----------------------------14~----|
-------------------------|---------------|-----------------------------------|
-------------------------|---------------|-----------------------------------|


   E   E    E   E    E   E   E   E      E     E     E   E   E   E   Q      
------------------------------------|-------------------------------------|
------13p--12-----------12--13--15--|--15br--15--<>13--12---L--13---------|
---------------12h--14--------------|-------------------------------------|
---L--------------------------------|------------------------------14~----|
------------------------------------|-------------------------------------|
------------------------------------|-------------------------------------|


   E   E    E   E   E   E    E   E      E     E   E   E  E   E   Q      
------------------------------------|----------------------------------|
------13p--12------12-----------12--|----------------------------------|
---------------14------12h--14------|--16br---L--14--16-----12--14~----|
---L--------------------------------|----------------------------------|
------------------------------------|----------------------------------|
------------------------------------|----------------------------------|


   E   E    E   E   E   E    E   E      E     E   E   E   E   E   E   E   
------------------------------------|------------------------------------|
------13p--12------12-----------12--|------------------------------------|
---L-----------14------12h--14------|--16br---L--14--16---L--14--12------|
------------------------------------|--------------------------------14--|
------------------------------------|------------------------------------|
------------------------------------|------------------------------------|


                                    W                     
   Q     E   E   E   E   E   E      H         Q     Q     
--------------------------------|------------------------|
--------13--12----------13------|---x--------------------|
----------------------------13--|--14---------L~---------|
--13------------12--12----------|------------------------|
--------------------------------|------------------------|
--------------------------------|------------------------|


  PM PM PM PM PM PM PM PM PM PM PM PM           PM PM PM PM PM   PM PM PM PM PM PM PM       
  S  S  S  S  S  S  S  S  S  S  S  S  S E.      S  S  S  S  S  S S  S  S  S  S  S  S  E.    
---------------------------------------------|---------------------------------------------|
---------------------------------------------|---------------------------------------------|
---------------------------------------------|---------------------------------------------|
-----4--5--4--5--7--5--4-----4--5--4--5-7\---|-----4--5--4--5--7-5--4-----4--5--4--5--7\---|
--7-----------------------7------------------|--7----------------------7-------------------|
---------------------------------------------|---------------------------------------------|


  PM PM PM PM PM PM PM PM PM PM PM PM PM         PM PM PM PM PM PM PM PM PM PM PM PM PM       
  S  S  S  S  S  S  S  S  S  S  S  S  S  E.      S  S  S  S  S  S  S  S  S  S  S  S  S  E.    
----------------------------------------------|----------------------------------------------|
----------------------------------------------|----------------------------------------------|
----------------------------------------------|----------------------------------------------|
-----5--6--5--6--8--6--5-----5--6--5--6--8\---|-----6--7--6--7--9--7--6-----6--7--6--7--9~---|
--8-----------------------8-------------------|--9-----------------------9-------------------|
----------------------------------------------|----------------------------------------------|


   S S S S S  S S S  S S S S S   S  S S     S S  S S  S  S  S  S  S  S  S  S  S  E.    
----------------------------------------|---------------------------------------------|
----------------------------------------|---------------------------------------------|
----------------------------------------|---------------------------------------------|
-----7-8-7-8-10-8-7----8-9-8-9--11--9-8-|-----9-10-8----10-11-10----11-12-11-12-14\---|
--10----------------11---------(11)-----|--12--------13----------14-------------------|
----------------------------------------|---------------------------------------------|


  S S S S S S S S S S S S S E.      S S S S S S S S S S S S S E.    
---------------------------------|---------------------------------|
---------------------------------|---------------------------------|
---------------------------------|---------------------------------|
----4-5-4-5-7-5-4---4-5-4-5-7\---|----4-5-4-5-7-5-4---4-5-4-5-7\---|
--7---------------7--------------|--7---------------7--------------|
---------------------------------|---------------------------------|


                                                                               PM    PM       PM  
  S S S S S S S S S S S S S E.      S S S S S S S S S S S S S E.      H        S  E  S  S S S S   
---------------------------------|---------------------------------|-----------------------------|
---------------------------------|---------------------------------|-----------------------------|
---------------------------------|---------------------------------|--------------7-----5-4------|
----4-5-4-5-7-5-4---4-5-4-5-7\---|----4-5-4-5-7-5-4---4-5-4-5-7\---|--2-----------7-----5-L------|
--7---------------7--------------|------------------7---------7\---|--0--------0-----0--------0--|
---------------------------------|--0------------------------------|-----------------------------|


           PM    PM       PM             PM    PM       PM             PM    PM       PM  
  H        S  E  S  S S S S     H        S  E  S  S S S S     H        S  E  S  S S S S   
-----------------------------|-----------------------------|-----------------------------|
-----------------------------|-----------------------------|-----------------------------|
--------------7-----5-4------|--------------7-----5-4------|--------------7-----5-4------|
--2-----------7-----5-L------|--2-----------7-----5-L------|--2-----------7-----5-L------|
--0--------0-----0--------0--|--0--------0-----0--------0--|--0--------0-----0-----------|
-----------------------------|-----------------------------|--------------------------5--|


    PM PM   PM PM   PM PM   PM PM              PM PM   PM PM   PM PM   PM PM          
  S S  S  S S  S  S S  S  S S  S  S S S S    S S  S  S S  S  S S  S  S S  S  S S S S  
------------------------------------------|------------------------------------------|
------------------------------------------|------------------------------------------|
------------------------------------------|------------------------------------------|
------------------------------------------|------------------------------------------|
------------------------------------------|------------------------------------------|
--5-5--5--5-5--5--5-5--5--5-5--5--5-5-3-4-|--5-5--5--5-5--5--5-5--5--5-5--5--5-5-3-4-|


    PM PM   PM PM   PM PM   PM PM              PM PM   PM PM   PM PM   PM PM          
  S S  S  S S  S  S S  S  S S  S  S S S S    S S  S  S S  S  S S  S  S S  S  S S S S  
------------------------------------------|------------------------------------------|
------------------------------------------|------------------------------------------|
------------------------------------------|------------------------------------------|
------------------------------------------|------------------------------------------|
------------------------------------------|------------------------------------------|
--5-5--5--5-5--5--5-5--5--5-5--5--5-5-3-4-|--5-5--5--5-5--5--5-5--5--5-5--5--5-5-5-5-|


  Q.     E  Q    E  E      Q.     E  Q       E  E  E  E  E  E  E  E     E  E  Q    E  E  E  E   
------------------------|-----------------|--------------------------|-------------------------|
------------------------|-----------------|-----------------------5--|--L--8--7----6--5-----4--|
------------------------|-----------------|-----4--5--4--L--5--7-----|-------------------5-----|
--5---------------------|-----------------|--7-----------------------|-------------------------|
--3------5--L----L--5\--|--3------2--L----|--------------------------|-------------------------|
---------3--L----L--3\--|--1------0--L----|--------------------------|-------------------------|


  E  E  E  E  E  E  E  E     E  E  E   E   E  E   E   E     E  E  E  E  E  E  E  E   
--------------------------|------------------------------|--------------------------|
-----------------------5--|--L--8--7-------6--5-------4--|-----------------------5--|
-----4--5--4--L--5--7-----|-----------(7)--------(5)-----|-----4--5--4--L--5--7-----|
--7-----------------------|------------------------------|--7-----------------------|
--------------------------|------------------------------|--------------------------|
--------------------------|------------------------------|--------------------------|


  E  E  Q    E  E  E  E     E   E  E   E  E  E  E  E     W                                         
-------------------------|----------------------------|-------------------------------------------|
--L--8--7----6--5-----4--|----------------------------|--9----------------------------------------|
-------------------5-----|--7p--5--7p--5-----5--4--5--|--9----------------------------------------|
-------------------------|----------------------------|--9----------------------------------------|
-------------------------|----------------------------|--7----------------------------------------|
-------------------------|----------------0-----------|--0----------------------------------------|


  W                   E  E  E  E  Q       Q      
-------------------|---------------------------||
--L----------------|---------------------------||
--L----------------|-----5--4--5---------------||
--L----------------|--7-----------7------------||
--L----------------|-------------------8g15----||
--L----------------|---------------------------||



Bass - Ian Hill

     W                   W                   W                   W                 
G||-------------------|-------------------|-------------------|-------------------|
D||-------------------|-------------------|-------------------|-------------------|
A||-------------------|-------------------|-------------------|-------------------|
E||-------------------|-------------------|-------------------|-------------------|


  W                   W                   H        Q       E.  S E  E  S E.  S S S S  
-------------------|-------------------|----------------|----------------------------|
-------------------|-------------------|----------------|--7---7----7----7---7-5-5-7-|
-------------------|-------------------|----------------|--7---7----7----7---7-5-5-7-|
-------------------|-------------------|----------------|----------------------------|


  E  S S S S E  S E  S S S S S    E  S S S S E  S E  S S S S S    E  S S S S E  S E  S S  E   S  
-------------------------------|-------------------------------|--------------------------------|
--7----7-----7----7----7-5-5-7-|--7----7-----7----7----7-5-5-7-|--7----7-----7----7----7s-5s--7-|
--7----7-----7----7----7-5-5-7-|--7----7-----7----7----7-5-5-7-|--7----7-----7----7----7s-5s--7-|
-----5-----5----5----5---------|-----5-----5----5----5---------|-----5-----5----5----5----------|


  E  S S S S E  S S E  S S S S    Q.     E  E  E  Q       E.  S S  S E  Q     
-------------------------------|-----------------------|---------------------|
--7----7---------------7-5-5-7-|------------------5----|--------3s-2---------|
--7----7---------------7-5-5-7-|--3--------------------|------3--------------|
-----5-----5-0--0-0-0----------|---------3--L--3-------|--1----------0--L----|


  E  E  E  E  E  E  E  E     E  E  E  E  E  E  E  E     E  S S S S E  S S S S S  E  S  
--------------------------|--------------------------|--------------------------------|
--------------------------|--------------------------|-------7-----7------7---7s-5--7-|
--------------------------|--------------4--5--6--7--|-------7-----7----7-7---7s-5--7-|
--5--5--5--5--5--5--5--5--|--5--5--5--5--------------|--5--------5----5-----5---------|


  E  S S S S E  S E  S S  E  S    E  S S S S E  S E  S S  E  S    E  S S S S S S S E  S S  E  S  
-------------------------------|-------------------------------|--------------------------------|
-------7-----7----7----7s-5--7-|--7----7-----7----7----7s-5--7-|-------7-----------7----7s-5--7-|
-------7-----7----7----7s-5--7-|--7----7-----7----7----7s-5--7-|-------7-----------7----7s-5--7-|
--5--------5----5----5---------|-----5-----5----5----5---------|--5------5-5-5-5-5----5---------|


  Q.     E  E  E  Q       E.  S S  S E  Q       E  E  E  E  E  E  E  E     E  E  E  E  E  E  E  E   
-----------------------|---------------------|--------------------------|--------------------------|
------------------5----|--------3s-2---------|--------------------------|--------------------------|
--3--------------------|------3--------------|--------------------------|--------------4--5--6--7--|
---------3--L--3-------|--1----------0--L----|--5--5--5--5--5--5--5--5--|--5--5--5--5--------------|


  E  E  E  E  E  E  E  E     E  E  E  E  E  E  E  E     E  E  E  E  E  E  E  E   
--------------------------|--------------------------|--------------------------|
--------------------------|--------------------------|--------------------------|
--------------------------|--------------4--5--6--7--|--------------------------|
--5--5--5--5--5--5--5--5--|--5--5--5--5--------------|--5--5--5--5--5--5--5--5--|


  E  E  E  E  E  E  E  E     E  E  E  E     E  E  E  E  E  E  E  E     E  E  E  E  E  E  E  E   
--------------------------|--------5--7--|--------------------------|--------------------------|
--------------------------|--5--7--------|--------------------------|--------------------------|
--------------4--5--6--7--|--------------|--7--7--7--7--7--7--7--7--|--7--7--7--7--7--7--5--5--|
--5--5--5--5--------------|--------------|--------------------------|--------------------------|


  E  E  E  E  E  E  E  E     E  E  E  E  E  E  E  E      E   E   E   E   E   E   E   E   
--------------------------|--------------------------|----------------------------------|
--------------------------|--------------------------|----------------------------------|
--7--7--7--7--7--7--7--7--|--7--7--7--7--7--7--5--5--|--12--12--12--12--12--12--12--12--|
--------------------------|--------------------------|----------------------------------|


   E   E   E   E   E   E   E   E      E   E   E   E   E   E   E   E      H          E  E  Q     
----------------------------------|----------------------------------|--12S--------11--7--L----|
----------------------------------|----------------------------------|-------------------------|
--12--12--12--12--12--12--10--12--|--12--12--12--12--12--12--10--12--|-------------------------|
----------------------------------|----------------------------------|-------------------------|


  Q    Q    E   E  E  E     W                   W                   W                 
-------------------------|-------------------|-------------------|-------------------|
-------7-----------------|-------------------|-------------------|-------------------|
-------------------------|--7----------------|--L----------------|-------------------|
--5---------5\--2--3--5--|-------------------|-------------------|-------------------|


  W                   W                   W                   S S S S E  S S S S S S S E.    
-------------------|-------------------|-------------------|--------------------------------|
-------------------|-------------------|-------------------|---------------------------7\---|
-------------------|-------------------|-------------------|--7-7-7-7-7--7-7-7-7-7-7-7-7\---|
-------------------|-------------------|-------------------|--------------------------------|


  S S S S E  S S S S S S S E.      S S S S E  S S S S S S S E.      S S S S E  S S S S S S S E.    
--------------------------------|--------------------------------|--------------------------------|
---------------------------7\---|---------------------------7\---|---------------------------7\---|
--7-7-7-7-7--7-7-7-7-7-7-7-7\---|--7-7-7-7-7--7-7-7-7-7-7-7-7\---|--7-7-7-7-7--7-7-7-7-7-7-7-7\---|
--------------------------------|--------------------------------|--------------------------------|


  E  S S S S E  S E  S S  E  S    E  S S S S E  S E  S S  E  S    E  S S S S E  S E  S S  E  S  
-------------------------------|-------------------------------|-------------------------------|
--7----7-----7----7----7s-5--7-|--7----7-----7----7----7s-5--7-|--7----7-----7----7----7s-5--7-|
--7----7-----7----7----7s-5--7-|--7----7-----7----7----7s-5--7-|--7----7-----7----7----7s-5--7-|
-----5-----5----5----5---------|-----5-----5----5----5---------|-----5-----5----5----5---------|


  E  S S S S E  S E  S S  E  S    E  S S S S E  S E  S S  E  S    E  S S S S E  S E  S S  E  S  
-------------------------------|-------------------------------|-------------------------------|
--7----7-----7----7----7s-5--7-|--7----7-----7----7----7s-5--7-|--7----7-----7----7----7s-5--7-|
--7----7-----7----7----7s-5--7-|--7----7-----7----7----7s-5--7-|--7----7-----7----7----7s-5--7-|
-----5-----5----5----5---------|-----5-----5----5----5---------|-----5-----5----5----5---------|


  E  S S S S E  S E  S S  E  S    E  S S S S E  S E  S S  E  S    Q.     E  E  E  Q     
-------------------------------|-------------------------------|-----------------------|
--7----7-----7----7----7s-5--7-|--7----7-----7----7----7s-5--7-|------------------5----|
--7----7-----7----7----7s-5--7-|--7----7-----7----7----7s-5--7-|--3--------------------|
-----5-----5----5----5---------|-----5-----5----5----5---------|---------3--L--3-------|


  E.  S S  S E  E  E     E  E  E  E  E  E  E  E     E  E  E  E  E  E  E  E   
----------------------|--------------------------|--------------------------|
--------3s-2-------9--|--------------------------|--------------------------|
------3------------7--|--------------------------|--------------4--5--6--7--|
--1----------0--L-----|--5--5--5--5--5--5--5--5--|--5--5--5--5--------------|


  E  E  E  E  E  E  E  E     E  E  E  E  E  E  E  E     E  E  E  E  E  E  E  E   
--------------------------|--------------------------|--------------------------|
--------------------------|--------------------------|--------------------------|
--------------------------|--------------4--5--6--7--|--------------------------|
--5--5--5--5--5--5--5--5--|--5--5--5--5--------------|--5--5--5--5--5--5--5--5--|


  E  E  E  E  E  E  E  E     E  E  E  E  E   E   E   E     W                   W                 
--------------------------|--------5--7-----------------|-------------------|-------------------|
--------------------------|--5--7---------------10--10--|--9----------------|--L----------------|
--------------4--5--6--7--|-----------------12----------|--7----------------|--L----------------|
--5--5--5--5--------------|-----------------------------|-------------------|-------------------|

  
  E  E  E  E  Q    Q                                          
-----5--4--5--2---------------------------------------------||
--7-----------2---------------------------------------------||
--------------0---------------------------------------------||
------------------------------------------------------------||




Duration Legend
---------------
W - whole
H - half
Q - quarter
E - 8th
S - 16th
T - 32nd
X - 64th
. - note dotted
|-n-|  - n-tuplets


Tablature Legend
----------------
L - tied note
x - dead note
g - grace note
(n) - ghost note
> - accentuded note
NH - natural harmonic
AH - artificial harmonic
TH - tapped harmonic
SH - semi harmonic
PH - pitch harmonic
h - hammer on
p - pull off
b - bend
br - bendRelease
pb - preBend
pbr - preBendRelease
brb - bendReleaseBend
\n/ - tremolo bar dip
\n - tremolo bar dive
-/n - tremolo bar Release up
/n\ - tremolo bar inverted dip
/n - tremolo bar return
-\n - tremolo bar Release down
S - shift slide
s - legato slide
/ -  slide into from below or out of upwards
\ -  slide into from above or out of downwards
~ - vibrato
W - wide vibrato
tr - trill
TP - tremolo picking
T - tapping
S - slap
P - pop
< - fade in
^ - brush up
v - brush down
comments
We did not receive enough feedback on this tab! Please rate:
print report bad tab
1 2 3 4 5
I want to post or [tab]
guest
You may want to rate the tab now too:
select rating
Please do not post tabs as comments. Select "correction" instead!