Oops, an error
Loading. Please wait.

The Sentinel Tab

ver2
ver2

Whole song

More versions @911Tabs.com
31,933 views 100 this week
4 commentsread comments
1 2 3 4 5
excellent!
x 15
Autoscroll
+/-
esc
set tempo
stop
Contributor
Difficulty
advanced
WARNING: You are trying to view
                                    content from Ultimate-Guitar.com
                                    in an unauthorized application,
                                    which is prohibited.

                                    Please use an official Ultimate
                                    Guitar Tabs application for iPhone,
                                    iPad or Android to access legitimate
                                    chords, guitar, bass, and drum tabs
                                    from Ultimate-Guitar.com database.

                                    Type "ultimate guitar tabs" in Apple
                                    App Store's or Android Market's
                                    search to find the application.
The Sentinel (Defenders of the Faith)

This took forever to tab out. I have only seen one other tab of this so I thought i'd 
out my way of playing it. Enjoy.

Intro
e--------------------------------------------------------------------------------------|
B--------------------------------------------------------------------------------------|
G--------------------------------------------------------------------------------------|
D---9--------2--4--5--4h5p4--2------5---5(4)----2------------------------------7---9---|
A---7-----2---------------------5---3---2-------0--------------0----------2----5---7---|
E---0-------------------------------------------------0--2--3-----3--2----0--------0---|

e-------------------------------------------------------------------------------|
B-------------------------------------------------------------------------------|
G-------------------------------------------------------------------------------|
D-----2--4--5--4h5p4--2------5---5(4)----2------------------------------Rest----|
A--2---------------------5---3---2-------0--------------0----------2------------|
E----------------------------------------------0--2--3-----3--2----0------------|

(Fast apreggios)
e-------------------0--------------------------------------------------------0-------|
B-----------------------1--------3--------1-------------------------------------1----|
G--------2-------2------------2--------2-----------0------------2--------2-----------|
D-----2-------3------------0--------3-----------2------------2--------3--------------|
A--0-------0---------------------------------3--------2-3-0--------0-----------------|
E------------------------------------------------------------------------------------|

e------------------------------------------------------------------------------------|
B--------3--------1------------------------------------------------------------------|
G-----2--------2-----------0---------2--------------5--5---5-----5--5--5---5---------|
D--0--------3-----------2------------2---------2----5--5---5-----5--5--5---5-------2-|
A--------------------3--------2--3---0---------0---------0---------------0---0-----0-|
E-------------------------------------------------------------------------------3----|

e------------------------------------------------------------------------------------|
B------------------------------------------------------------------------------------|
G-------------------------------------------------------------------------------5-5--|
D-------------------------------------------------------------------------------5-5--|
A-0--0--0--0--0--0--0--0--0--0--0--0--0--0--0--0--0--0--0--0--0--0--0--0--0--0-------|
E------------------------------------------------------------------------------------|

e---------------2--------------------------------------------------------------2-----|
B---------------3--------------------------------------------------------------3-----|
G-----5---------2------5----2-------0----2-------------------------5--5----5---2-----|
D-----5---------0------2----3-------0----2-------------------------5--5----5---0-----|
A--0-----0--0----------------------------0---0--0--0--0--0--0--0---------0-----------|
E------------------------------------------------------------------------------------|

e------------------------------------------------------------------------------------------|
B------------------0--------0--------------------------------------------------------------|
G--5----2----5-----2--------1------5--2--4--2--5-----------------------------5--2--4--2--5-|
D--2----3----7-----2--------2---2-----------------2------------------------2---------------|
A---------------------------------------------------0--0--0--0--0--0--0--0-----------------|
E------------------------------------------------------------------------------------------|

e-------------------------------------------------------------------------------------|
B-------------------------------------------------------------------------------------|
G-------------------------------5--2--4--2--5-----2-----2--2--2--2--2--2--------5-----|
D--2-------------------------2-----------------2--3-----3--3--3--3--3--3--3--3------3-|
A--0--0--0--0--0--0--0--0--0-------------------3--------------------------------------|
E-------------------------------------------------------------------------------------|

e-----------------------------------------------------------------------------------------|
B-----------------------------------------------------------------------------------------|
G-4-----5-7-7~------5--4---5--5---5-------------------------------------------------------|
D----3---------------------5--5---5--------2----------------------------------------------|
A-------------------------------0----0-----0--0--0--0--0--0--0--0--0--0--0--0--0--0--0--0-|
E---------------------------------------3-------------------------------------------------|

e----------------------------------------------------------------------------------------|
B----------------------------------------------------------------------------------------|
G-------------------------5--5---5-------------------------------------------------------|
D-------------------------5--5---5--------2----------------------------------------------|
A-0--0--0--0--0--0--0--0-------0----0-----0---0--0--0--0--0--0--0--0--0--0--0--0--0--0---|
E--------------------------------------3-------------------------------------------------|

e----------------------------------------------------------2--------------------------|
B----------------------------------------------------------3--------------------------|
G-------------------------------------------5--5---5-------2---5----2----0----2-------|
D-------------------------------5-----------5--5---5-------0---2----3----0----2-------|
A-0--0--0--0--0--0--0--5----7---3---5---7--------0---0--0---------------------0-------|
E----------------------3----5-------3---5---------------------------------------------|

e-------------------------------------2------------------------------------------------|
B-------------------------------------3-------------------0------0---------------------|
G----------------------5--5---5-------2----5----2----7----2------1------5--2--4--2--5--|
D----------------------5--5---5-------0----2----3----5----2------2---2-----------------|
A-0--0--0--0--0--0--0-------0---0--0---------------------------------------------------|
E--------------------------------------------------------------------------------------|

e--------------------------------------------------------------------------------------|
B--------------------------------------------------------------------------------------|
G-------------------------5--2--4--2--5---------------------------5--2--4--2--5------2-|
D----------------------2-----------------2---------------------2------------------2--3-|
A-0--0--0--0--0--0--0--------------------0---0--0--0--0--0--0---------------------3----|
E--------------------------------------------------------------------------------------|

e--------------------------------------------------------------------------------------|
B-----------------------------------------------------5---------8------9------10-------|
G--2--2--2--2--2--2--------5------4-----5-7-7~--------7b--------10b----11b----12b------|
D--3--3--3--3--3--3--3--3------3-----3-------------------------------------------------|
A--------------------------------------------------------------------------------------|
E--------------------------------------------------------------------------------------|

e------------------------------------------------------------------------------------|
B------------------------------------------------------------------------------------|
G------------------------------------------------------------------------------------|
D--9---9--------2--4--5--4h5p4--2------5---(5)--------4---2--------------------------|
A--7---7-----2---------------------5---3---(3)----0---2---0-------------0----------7-|
E--------------------------------------------------------------0--2--3-----3--2----0-|

e------------------------------------------------------------------------------------|
B------------------------------------------------------------------------------------|
G------------------------------------------------------------------------------------|
D-7-----9--(9)--------2--4--5--4h5p4--2------5---------4---2-------------------------|
A-5-----7--(7)-----2---------------------5---3-----0---2---0-----------0---------2---|
E-------------------------------------------------------------0--2--3-----3--2---0---|

(More fast arpeggios)
e-----------------------0----------------------------------------------------------0--|
B--------------------------1--------3--------1----------------------------------------|
G-----------2--------2-----------2--------2-----------0--------------2---------2------|
D--------2--------3-----------0--------3-----------2--------------2---------3---------|
A-----0--------0--------------------------------3--------2--3--0---------0------------|
E--3----------------------------------------------------------------------------------|

e------------------------------------------------------------------------------------|
B-1--------3--------1----------------------------------------------------------------|
G-------2--------2-----------0---------------------0--2------------------------------|
D----0--------3-----------2------------------------0--2-----------------5--6--7------|
A----------------------3--------2--3--0--0--0--0-----------0--0--0--0----------------|
E------------------------------------------------------------------------------------|

e------------------------------------------------------------------------------------|
B------------------------------------------------------------------------------------|
G-------------0--2------5----5--4----------------0--2--------------------------------|
D-------------0--2--7---2----3--2----------------0--2------------------5--6--7*------|
A-0--0--0--0--------5---------------0--0--0--0-----------0--0--0--0------------------|
E------------------------------------------------------------------------------------|
									    A.H.
e------------------------------------------------------------------------------------|
B------------------------------------------------------------------------------------|
G--0---1---h2-------0--2--2-----5--------5----2-----(Into Guitar solo)---------------|
D--2---2----2---2---0--2--0-----2--------3----4--------------------------------------|
A--0---0----0---0--------------------------------------------------------------------|
E------------------------------------------------------------------------------------|

GUITAR SOLO!!!
e--12p5h8p5--12p5h7p5----12p5h8p5--13p8p7p5--12p5h8p5--12p5h7p5--12p5h8p5------------|
B------------------------------------------------------------------------------------|
G------------------------------------------------------------------------------------|
D------------------------------------------------------------------------------------|
A------------------------------------------------------------------------------------|
E------------------------------------------------------------------------------------|
   T         T        T        T         T            T         T

e--13p8p7p5--12p5h8------------------------------------------------------------------|
B-------------------------10p5h6-----------------------------5---5b(6)---------------|
G--------------------9p5----------9p5h7p5--7br(9)p5-------5-------------5b(0.25)-----|
D----------------------------------------------------7----------------------------7--|
A------------------------------------------------------------------------------------|
E------------------------------------------------------------------------------------|
   T         T            T       T

e-------------------------------5h7p5h8------------------------------------17h20p17-----|
B---------------------------------------6p5-----------------------------------------20--|
G-5--5b(7)---5--7p5--7b(9)--5----------------7p5p4--------------------------------------|
D--------------------------------------------------7p5p4--------------------------------|
A---------------------------------------------------------7--5--------------------------|
E---------------------------------------------------------------7--8---5----------------|


e-17--17---17h20p17----------17h20p17---------17h20p17---------20p17------------------------|
B-------------------17h20p17----------17-18------------18-17---------17---20br(22)-20br(22)-|
G-------------------------------------------------------------------------------------------|
D-------------------------------------------------------------------------------------------|
A-------------------------------------------------------------------------------------------|
E-------------------------------------------------------------------------------------------|


e------------------------------------------------------------8---10b(12)----------------|
B---------------------------------------------------8--9h10-----------------------------|
G-------------------------------------9--7h8h9--10--------------------------------------|
D----------------------------5--6--7----------------------------------------7-----------|
A------------------5*--6--7*------------------------------------------------------------|
E-5--3h5--3--4--5-----------------------------------------------------------------5-----|
                  A.H.  A.H.

e------------------------------------------------------------------------------------|
B--------------------------0-10p8h10p8h10p8h10p8h10p8h10p8p0-------------------------|
G------------------5*------------------------------------------5--X--------7b(9)-----|
D--------7*--5--7------7--------------------------------------------X---7------------|
A------------------------------------------------------------------------------------|
E-3--5-------------------------------------------------------------------------------|
        A.H.      A.H.              Dip with bar^^^

(SWEEPS!!!)
e-------------20p17h20p17--------------------------------10-14p10---------10--14p10--|
B----------13---------(18)----------------------------10----------10----10-----------|
G-14----14-----------------17-14h17----17p14h17p14-11----------------11--------------|
D----15-----------------------------15-----------------------------------------------|
A------------------------------------------------------------------------------------|
E------------------------------------------------------------------------------------|


e--------7-10-7-------7--8p7-------4-8p4-------4--7p4-----7--------------------------|
B-10---8--------8---8--------8---5-------5---5---------5-----------------------------|
G----7------------7------------4-----------4-----------------------------------------|
D------------------------------------------------------------------------------------|
A------------------------------------------------------------------------------------|
E--------------------------------------------------------------7br-------0--3--5-----|
 							     W/bar??

e---------------------------------------------------------------------------5h7p5----|
B---------------------------------------------------------------5h6p5--6h8-----------|
G--------------------------------------5h7p5--4-5-----4h5-5h7p5----------------------|
D--------------------5--7--5--4h5-5h7------------------------------------------------|
A--3--5--7-----5--7------------------------------------------------------------------|
E------------------------------------------------------------------------------------|

e-7h8p7-8h10p8-10h12p10-12h13p12-13h15p13-15h17p15-17h19p17--20b(22)---20---19---17--|
B------------------------------------------------------------------------------------|
G------------------------------------------------------------------------------------|
D------------------------------------------------------------------------------------|
A------------------------------------------------------------------------------------|
E------------------------------------------------------------------------------------|

e------------------------------------------------------------------------------------|
B-20---10-------6------5------3------------------0----------0------------------------|
G---------9-------5------5------4-----5--2-----0----2----0-----2---------------------|
D-----------7-------5------5-------5--------2---------2-----------2---------2~-------|
A--------------------------------------------------------------------3--2---0~-------|
E------------------------------------------------------------------------------------|


Part with tremolo effect (~7.0Hz/max intensity)
e------------------------------------------------------------------------------------|
B------------------------------------------------------------------------------------|
G----------5----------O-------------5--5--5------------Listen to the song------------|
D-----7---------5-----R----7--7--7-----------5--5-------for the number of------------|
A-----------------------------------------------------------repeats.-----------------|
E------------------------------------------------------------------------------------|
                           .  .  .  .  .  .  .  .
e------------------------------------------------------------------------------------|
B----------------------0-------------------------------------------------------------|
G-2----5----2----5-----2------6--------5--2--4--2--5-----2---------------------------|
D-0----2----3----7-----2------4-----2-----------------2--2---------------------------|
A--------------------------------------------------------0---0--0--0--0--0--0--0-----|
E------------------------------------------------------------------------------------|

e------------------------------------------------------------------------------------|
B------------------------------------------------------------------------------------|
G-----5--2--4--2--5--2--------------2-2-2--5--2--4--2--5--2--------------------------|
D--2-----------------2--------------0-2-2-----------------3--3--3--3--3--3--3--3--3--|
A--------------------0--0--0--0--0---------------------------------------------------|
E------------------------------------------------------------------------------------|

e------------------------------------------------------------------------------------|
B------------------------------------------------------------------------------------|
G--5----4----5--7-7~-----5-4------5--2--4--2--5-----------------------------5--2-----|
D----3----3--------------------2-----------------2-----------------------2-----------|
A------------------------------------------------0--0--0--0--0--0--0--0--------------|
E------------------------------------------------------------------------------------|

e------------------------------------------------------------------------------------|
B------------------------------------------------------------------------------------|
G-4--2--5--2---------------2-2-2--5--2--4--2--5--2---------------------------5-------|
D----------2---------------0-2-2-----------------3--3--3--3--3--3--3--3--3------3----|
A----------0--0--0--0--0-------------------------------------------------------------|
E------------------------------------------------------------------------------------|

e------------------------------------------------------------------------------------|
B------------------------------------------------------------------------------------|
G-4----5--7-7~-----5-4------5--2--4--2--5-----------------------------5--2--4--2--5--|
D---3--------------------2-----------------2-----------------------2-----------------|
A------------------------------------------0--0--0--0--0--0--0--0--------------------|
E------------------------------------------------------------------------------------|

e------------------------------------------------------------------------------------|
B------------------------------------------------------------------------------------|
G-2---------------2-2-2--5--2--4--2--5--2--------------------------5-----4----5--7-7~|
D-2---------------0-2-2-----------------3--3--3--3--3--3--3--3--3-----3-----3--------|
A-0--0--0--0--0----------------------------------------------------------------------|
E------------------------------------------------------------------------------------|

e------------------------------------------------------------------------------------|
B------------------------------------------------------------------------------------|
G-5-4------5--2--4--2--5-----------------------------5--2--4--2--5---2---------------|
D-------2-----------------2-----------------------2------------------2---------------|
A-------------------------0--0--0--0--0--0--0--0---------------------0--0--0--0--0---|
E------------------------------------------------------------------------------------|

e------------------------------------------------------------------------------------|
B------------------------------------------------------------------------------------|
G--2-2-2--5--2--4--2--5--2--------------------------5----4----5--7-7~--5-4-----------|
D--0-2-2-----------------3--3--3--3--3--3--3--3--3-----3----3----------------2-------|
A------------------------------------------------------------------------------------|
E------------------------------------------------------------------------------------|

e-----------------------------------------------------------------------------------------------------|
B-----------------------10-------6------5------3------------------0----------0------------------------|
G--5--2--4--2--5-----------9-------5------5------4-----5--2-----0----2----0-----2---------------------|THE
D------------------2---------7-------5------5-------5--------2---------2-----------2---------2~-------|END!!
A------------------0------------------------------------------------------------------3--2---0~-------|
E-----------------------------------------------------------------------------------------------------|
comments
print report bad tab
4 comments total. Showing first comments.
0 reply
stardude8 wrote on January 30 2008, 05:50 pm

sounds correct to me.

0 reply
bac738 wrote on July 5 2009, 09:32 pm

Very good man nice tab and I bet it did take you a while lol good job and thanks

0 reply
silentphoenix wrote on May 17 2013, 09:21 am

Just tried this out tonight, sounds spot on, good stuff. Thanks for the well spent evening

I want to post or [tab]
guest
You may want to rate the tab now too:
select rating
Please do not post tabs as comments. Select "correction" instead!