Oops, an error
Loading. Please wait.

Turbo Tab

2,812 views 6 this week
no commentswrite comment
1 2 3 4 5
excellent!
x 1
add to favorites launch autoscroll
font size
0
reset
Autoscroll
+/-
esc
set tempo
stop
Contributor
Difficulty
advanced
WARNING: You are trying to view
                                    content from Ultimate-Guitar.com
                                    in an unauthorized application,
                                    which is prohibited.

                                    Please use an official Ultimate
                                    Guitar Tabs application for iPhone,
                                    iPad or Android to access legitimate
                                    chords, guitar, bass, and drum tabs
                                    from Ultimate-Guitar.com database.

                                    Type "ultimate guitar tabs" in Apple
                                    App Store's or Android Market's
                                    search to find the application.
Judas priest - Turbo album
Songs:

1 Turbo Lover
2 Locked In
3 Private Property 
4 Parental Guidance 
5 Rock You All Around the World 
6 Out in the Cold 
7 Wild Nights, Hot & Crazy Days 
8 Hot for Love 
9 Reckless 

TABLATURE LEGEND
----------------
 h   - hammer-on
 p   - pull-off
 b   - Bend
 pb - pre-bend
 r   - Bend release (if no number after the r, then release immediately)
 /\ - slide into or out of (from/to "nowhere")
 s   - Legato slide
 S   - Shift slide
 Na - natural harmonic
[n] - artificial harmonic
n(n) - tapped harmonic
 ~   - vibrato
 tr - trill
 T   - tap
 tp - trem. picking
 PM - palm muting
\n/ - tremolo bar dip; n = amount to dip
 \n - tremolo bar down
 n/  - tremolo bar up
/n\ - tremolo bar inverted dip
 =   - hold bend; also acts as connecting device for hammers/pulls
 <> - volume swell (louder/softer)
 x   - On rhythm slash represents muted slash
 o   - On rhythm slash represents single note slash
 | - bar
|| - double bar
||o - repeat start
o|| - repeat end
*| - double bar (ending)
 : - bar (freetime)
 $  - Segno

1 Turbo Lover

Intro
  Gtr I
|----------|------------|------------|--------|
|----------|------------|------------|--------|
|----------|------------|------------|--------|
|----------|------------|------------|--------|
|----------|------------|------------|--------|
|-0--------|-(0)--------|-(0)--------|-(0)----|

  Gtr I
|----------|------------|------------|--------|
|-5--------|-(5)--------|-(5)--------|-(5)----|
|-4--------|-(4)--------|-(4)--------|-(4)----|
|-2--------|-(2)--------|-(2)--------|-(2)----|
|-2--------|-(2)--------|-(2)--------|-(2)----|
|----------|------------|------------|--------|

  Gtr I
|---------|---------|---------|-----|
|---------|---------|---------|-----|
|---------|---------|---------|-----|
|---------|---------|---------|-----|
|---------|---------|---------|-----|
|---------|---------|---------|-----|

   Verse 1

    Gtr I
||----------|---------|--------------|---------||
||o---------|---------|--------------|--------o||
||----------|---------|--------------|---------||
||----------|---------|-7S9-(9)------|-(9)-----||
||o---------|---------|-5S7-(7)------|-(7)----o||
||----------|---------|--------------|---------||

|----------|------------|----------|-----------|
|----------|------------|----------|-----------|
|----------|------------|----------|-----------|
|-7--------|-(7)--------|-5--------|-2---------|
|-5--------|-(5)--------|-3--------|-0----5----|
|----------|------------|----------|------3----|

|----------|---------------|----------------|--------|
|----------|---------------|----------------|--------|
|----------|--------7----7-|-(7)S9-(9)------|-(9)----|
|----------|--------7----7-|-(7)S9--9-------|-(9)----|
|-2--------|-(2)-------7---|--------7-------|-(7)----|
|-0--------|-(0)-----------|----------------|--------|

||------------|------------|-----------|---------||
||o-----------|------------|-----------|--------o||
||------------|------------|-----------|---------||
||--7----9S===|=12----9----|-7--9------|-(9)-----||
||o-5----7S===|=10----7----|-5--7------|-(7)----o||
||------------|------------|-----------|---------||

|----------|------------|----------|-----------|
|----------|------------|----------|-----------|
|----------|------------|----------|-----------|
|-7--------|-(7)--------|-5--------|-2---------|
|-5--------|-(5)--------|-3--------|-0---------|
|----------|------------|----------|------3----|

|----------|---------------|----------------|--------|
|----------|---------------|----------------|--------|
|----------|--------7----7-|-(7)S9-(9)------|-(9)----|
|----------|--------7----7-|-(7)S9--9-------|-(9)----|
|-2--------|-(2)-------7---|--------7-------|-(7)----|
|-0--------|-(0)-----------|----------------|--------|

  Gtr I
|----------|------------|----------|----------------|
|----------|------------|----------|----------------|
|----------|------------|----------|----------------|
|-7--------|-(7)--------|-5--------|-(5)------------|
|-5--------|-(5)--------|-3--------|-(3)------------|
|----------|------------|----------|----------------|
|
| Gtr II
|----------|------------|----------|-------------x--|
|----------|------------|----------|-------------x--|
|----------|------------|----------|----------------|
|----------|------------|----------|----------9\----|
|----------|------------|----------|----------7\----|
|----------|------------|----------|----------------|


  Gtr I
|---------------|----------------|-----------------|-----------------|
|---------------|----------------|-----------------|-----------------|
|---------------|----------------|-----------------|-----------------|
|---------------|----------------|-----------------|-----------------|
|-2-------------|-2--------------|-----------------|-----------------|
|-0-------------|-0--------------|-----------------|-----------------|
|
| Gtr II
|---------------|----------------|-----------------|-----------------|
|---------------|----------------|-----------------|-----------------|
|---------------|------------0---|-----------------|-----------------|
|----2---2------|-2----2-----0---|-----2---2-------|-2----2-----0----|
|-2--2-2-2------|-2----2-------2-|-----2---2-------|-2----2-----0h2--|
|-0----0----0-0-|----0---0-0-----|-0-0---0---0-0-0-|-0--0---0-0------|

||------------|------------|-----------|---------||
||o-----------|------------|-----------|--------o||
||------------|------------|-----------|---------||
||--7----9S===|=12----9----|-7--9------|-(9)-----||
||o-5----7S===|=10----7----|-5--7------|-(7)----o||
||------------|------------|-----------|---------||

|----------|------------|----------|-----------|
|----------|------------|----------|-----------|
|----------|------------|----------|-----------|
|-7--------|-(7)--------|-5--------|-2---------|
|-5--------|-(5)--------|-3--------|-0---------|
|----------|------------|----------|------3----|

  Gtr I
|---------------|------------------|---------------------|------------------|
|---------------|------------------|---------------------|------------------|
|---------------|----------7-----7-|-(7)S9-(9)-----------|-(9)--------------|
|---------------|----------7-----7-|-(7)S9--9------------|-(9)--------------|
|-2-------------|-(2)----------7---|--------7------------|-(7)--------------|
|-0-------------|-(0)--------------|---------------------|------------------|
|
| Gtr II
|---------------|------------------|---------------------|------------------|
|---------------|------------------|---------------------|------------------|
|---------------|--------------0---|---------------------|------------------|
|----2---2------|--2-----2-----0---|--------2----2-------|--2-----2-----0---|
|-2--2-2-2------|--2-----2-------2-|--------2----2-------|--2-----2-----0h2-|
|-0----0----0-0-|------0---0-0-----|--0--0-----0---0-0-0-|--0---0---0-0-----|

  Gtrs I, II
|----------|----------|----------|------------|----------|------------------|
|----------|----------|----------|------------|----------|------------------|
|----------|----------|----------|------------|----------|------------------|
|-7--------|-7--------|-5--------|-2----------|-4--------|-7-7-7-7-7-7-7-7--|
|-5--------|-5--------|-3--------|-0----5-----|-2--------|-7-7-7-7-7-7-7-7--|
|----------|----------|----------|------3--0--|----------|------------------|

   Chorus
    Gtrs I, II
||------------|-----------|--------------|-3--------------|
||o-----------|-----------|--------------|-3----3---(3)/--|
||------------|-----------|--------------|-0----2---(2)/--|
||------------|-----------|-5------------|------0---------|
||o-5----7----|-5----7----|---7-(7)------|----------------|
||------------|-----------|--------------|----------------|

  Gtrs I, II
|-----------|-----------|--------------|------||
|-----------|-----------|--------------|-----o||
|-----------|-----------|--------------|------||
|-----------|-----------|-5------------|------||
|-5----7----|-5----7----|---7-(7)------|-----o||
|-----------|-----------|--------------|------||

 Verse 2
|---------|---------|-----------------|-----------------|
|---------|---------|-----------------|-----------------|
|---------|---------|-----------------|-----------------|
|---------|---------|-----9-----9-----|-----9-----9-----|
|---------|---------|-----7-----7-----|-----7-----7-----|
|---------|---------|-0-0---0-0---0-0-|-0-0---0-0---0-0-|

|-------------------|------------------|-----------------|
|-------------------|------------------|-----------------|
|-------------------|------------------|-----------------|
|-----10-----10-----|-----10-----10----|-----2-----2-----|
|------7------7-----|------7------7--0-|-0-0-0-0-0-0-0-0-|
|-0-0----0-0----0-0-|-0-0----0-0-------|-----------------|
          ~
|-------------|-----------------|---------------|
|-------------|-----------------|---------------|
|-----0-------|-----------------|---------------|
|-----0---4---|-----9-----9-----|-----9-----7---|
|-0-0-----5---|-----7-----7-----|-----7-----5---|
|-------------|-0-0---0-0---0-0-|-0-0---0-0-----|

|-----------------|-----------------|-------------------|------------------|
|-----------------|-----------------|-------------------|------------------|
|-----------------|-----------------|-------------------|------------------|
|-----9-----9-----|-----9-----9-----|-----10-----10-----|-----10-----10----|
|-----7-----7-----|-----7-----7-----|------7------7-----|------7------7--0-|
|-0-0---0-0---0-0-|-0-0---0-0---0-0-|-0-0----0-0----0-0-|-0-0----0-0-------|
                            ~
|-----------------|-------------|--------------------|------|
|-----------------|-------------|--------------------|------|
|-----------------|-----0-------|--------------------|------|
|-----2-----2-----|-----0---4---|-----9-----9-(9)\-0-|-4----|
|-0-0-0-0-0-0-0-0-|-0-0-----5---|-----7-----7-(7)\---|-2----|
|-----------------|-------------|-0-0---0-0----------|------|

   Chorus
    Gtrs I, II
||-----------|-----------|--------------|-3------------|
||o----------|-----------|--------------|-3----3---(3)/|
||-----------|-----------|--------------|-0----2---(2)/|
||-----------|-----------|-5------------|------0-------|
||o-5---7----|-5----7----|---7-(7)------|--------------|
||-----------|-----------|--------------|--------------|

|-----------|-----------|--------------|------||
|-----------|-----------|--------------|-----o||
|-----------|-----------|--------------|------||
|-----------|-----------|-5------------|------||
|-5----7----|-5----7----|---7-(7)------|-----o||
|-----------|-----------|--------------|------||

 Instrumental Interlude
 
  Gtr III
|--------------|-------------|---------0----|-0----|
|-------3------|-3-------2---|-------1------|-1----|
|-----4---4----|-4-----3-----|-----2--------|-2----|
|---4----------|-4--4--------|---2----------|-2----|
|-2------------|-2-----------|-0------------|-0----|
|--------------|-------------|--------------|------|

  Gtr III
|---------3----|-(3)-----2--0-|---2----------|-3----3-2-----|
|---------3----|-(3)----------|-----3---3----|-2--------3---|
|-------0------|--0-----------|---2---2------|-3----------2-|
|-----0--------|--0-----------|-0------------|-0------------|
|---2----------|--2-----------|--------------|--------------|
|-3------------|--3-----------|--------------|--------------|

  Gtr I
   ~~~~~~~~~~~~~~~~~~~~~~~~~~~~~~~~~~~~~~~~~~
|-------------------|------------------------15--17-|
|-17b19=============|=(17)b19=======(17)b19=========|
|-------------------|-------------------------------|
|-------------------|-------------------------------|
|-------------------|-------------------------------|
|-------------------|-------------------------------|
|
| Gtr III
|------------2------|---2------3p=2-----------------|
|----------3---3----|---3-------------3-------------|
|--------2----------|---2---------------------2-----|
|--0----------------|---0---------------------------|
|-------------------|-------------------------------|
|-------------------|-------------------------------|

   ~~~~~~~~~~~~~~~~~~~~~~~~~~
|-16b17=============|=16b18=====|
|-------------------|-----------|
|-------------------|-----------|
|-------------------|-----------|
|-------------------|-----------|
|-------------------|-----------|
|
|------------1------|--1--------|
|----------2---0----|--2--------|
|--------2----------|--2--------|
|--0----------------|--0--------|
|-------------------|-----------|
|-------------------|-----------|


  Gtr I
                                             ~~~~~~~~~~~~~~~~~
|-17b19=============|=(17)b19r=========|====17-------|---(17)---------|
|-20----------------|------------------|-------------|----------------|
|-------------------|------------------|-------------|----------------|
|-------------------|------------------|-------------|----------------|
|-------------------|------------------|-------------|----------------|
|-------------------|------------------|-------------|----------------|
|
| Gtr III
|------------3------|---3---------2--0-|-2-----------|----------------|
|--------------3----|---3--------------|-3-----------|-3-----------3--|
|----------0--------|---0--------------|--------2----|----------2-----|
|--------2----------|---2--------------|-------------|----------------|
|--3----------------|---3--------------|-------------|----------------|
|-------------------|------------------|-------------|----------------|

 Solo
  E5
  
    Gtr I
|-------------------|---------------------|
|-------------------|---------------------|
|-------------------|---------------------|
|----9-(9)S2------2S|==9---(9)S2--(2)S=9--|
|-------------------|---------------------|
|-------------------|---------------------|
|
| Gtr II
|-------------------|---------------------|
|-------------------|---------------------|
|---16S====9--(9)S==|=16--(16)-9--(9)-16--|
|-------------------|---------------------|
|-------------------|---------------------|
|-------------------|---------------------|

  C5
   ~~
|---------------|-------------------------|
|---------------|-------------------------|
|------------7--|-------------------------|
|--8---10-------|-10---9--7----9b10---9---|
|---------------|-------------------------|
|---------------|-------------------------|
|
|---------------|-------------------------|
|-----------15--|-------------------------|
|-15---17-------|-17--16-14---16b17-(16)--|
|---------------|-------------------------|
|---------------|-------------------------|
|---------------|-------------------------|

        Gtr I
|--------------------------|-----------------------|
|--------------------------|-----------------------|
|--------------------------|-----------------------|
|--(9)---7-------9b10--(9)-|--(9)---7--------------|
|-----------7--------------|-----------9---9S10--7-|
|--------------------------|-----------------------|
|
| Gtr II
|--------------------------|-----------------------|
|--------------------------|-----------------------|
|-(16)--14------16----(16)-|-(16)--14--------12----|
|----------14--------------|----------16--------14-|
|--------------------------|-----------------------|
|--------------------------|-----------------------|


  E5                                 D5
   \2
|--------------|----------------------------7h8h10--|
|--------------|---------------------7-8-10---------|
|--------------|-----------------7-9----------------|
|--------------|--------7-7-9-10--------------------|
|--7------7----|-7-9-10-----------------------------|
|--------------|------------------------------------|
|
|  \2________________________________________________
|--------------|------------------------------------|
|--------------|------------------------------------|
|--------------|------------------------------------|
|-14-----------|------------------------------------|
|--------------|------------------------------------|
|--------------|------------------------------------|

  E5
  Gtr I
   ~~                      ~~                ~~
|-12--19--(19)S12--(12)S|=19--(19)S12--(12)S19--|
|-----------------------|-----------------------|
|-----------------------|-----------------------|
|-----------------------|-----------------------|
|-----------------------|-----------------------|
|-----------------------|-----------------------|
|
| Gtr II
|-----------------------|-----------------------|
|-----------------------|-----------------------|
|--9--16--(16)S=9---(9)S|=16--(16)S=9---(9)S16--|
|-----------------------|-----------------------|
|-----------------------|-----------------------|
|-----------------------|-----------------------|

  C5                         ~~
|-18---20---22--|-20--19S17--17---|
|---------------|-----------------|
|---------------|-----------------|
|---------------|-----------------|
|---------------|-----------------|
|---------------|-----------------|
|
|---------------|-----------------|
|-----------15--|-----------------|
|-15---17-------|-17--16-14-------|
|---------------|-----------------|
|---------------|-----------------|
|---------------|-----------------|

  A5                                                   D5 G5
  Gtr I
|-----------------------12-------17-16-|----22-16-------0-/15----|
|--------------------------15----------|-17-------17\---------17-|
|-------------14-13-----------13-------|-------------------------|
|----------14-------14-----------------|-------------------------|
|-12-11-12-----------------------------|-------------------------|
|--------------------------------------|-------------------------|

  E5                               D5
|------------|----------------------------------|
|-17\--------|----------------------------------|
|------------|----------------------------------|
|------------|----------------------------------|
|------------|----------------------------------|
|------------|-x-x-x-x-x-x-x-x-x-x-x-x-x-x-x-x--|

 Verse 3
  Gtrs I, II
|-----------------|-----------------|-------------------|------------------|
|-----------------|-----------------|-------------------|------------------|
|-----------------|-----------------|-------------------|------------------|
|-----9-----9-----|-----9-----9-----|-----10-----10-----|-----10-----10----|
|-----7-----7-----|-----7-----7-----|------7------7-----|------7------7--0-|
|-0-0---0-0---0-0-|-0-0---0-0---0-0-|-0-0----0-0----0-0-|-0-0----0-0-------|

  Gtrs I, II
                           ~
|-----------------|-------------|-----------------|---------------|
|-----------------|-------------|-----------------|---------------|
|-----------------|-----0-------|-----------------|---------------|
|-----2-----2-----|-----0---4---|-----9-----9-----|-----9-----7---|
|-0-0-0-0-0-0-0-0-|-0-0-----5---|-----7-----7-----|-----7-----5---|
|-----------------|-------------|-0-0---0-0---0-0-|-0-0---0-0-----|

|-----------------|-----------------|-------------------|------------------|
|-----------------|-----------------|-------------------|------------------|
|-----------------|-----------------|-------------------|------------------|
|-----9-----9-----|-----9-----9-----|-----10-----10-----|-----10-----10----|
|-----7-----7-----|-----7-----7-----|------7------7-----|------7------7--0-|
|-0-0---0-0---0-0-|-0-0---0-0---0-0-|-0-0----0-0----0-0-|-0-0----0-0-------|
                            ~
|-----------------|-------------|--------------------|------|
|-----------------|-------------|--------------------|------|
|-----------------|-----0-------|--------------------|------|
|-----2-----2-----|-----0---4---|-----9-----9-(9)\-0-|-4----|
|-0-0-0-0-0-0-0-0-|-0-0-----5---|-----7-----7-(7)\---|-2----|
|-----------------|-------------|-0-0---0-0----------|------|


 Chorus
|-----------|-----------|--------------|-3------------|
|-----------|-----------|--------------|-3----3--(3)--|
|-----------|-----------|--------------|-0----2--(2)--|
|-----------|-----------|-5------------|------0-------|
|-5----7----|-5----7----|---7-(7)------|--------------|
|-----------|-----------|--------------|--------------|

|-----------|-----------|--------------|-----*|
|-----------|-----------|--------------|-----*|
|-----------|-----------|--------------|-----*|
|-----------|-----------|-5------------|-----*|
|-5----7----|-5----7----|---7-(7)------|-----*|
|-----------|-----------|--------------|-----*|

2 Locked In


Guitar
Rithm1 verse 1 and 2

E||------|--------------------------------|---------------------------------|
B||------|--------------------------------|-------8-------------------------|
G||------|-----9-----------9-----------9--|-------7-----------7h--9--7------|
D||--2S--|--7--7-----------7-----------7--|-------7-----------7------7--2S--|
A||--0---|-----0--0-----0--0--0-----0--0--|--0----0--0-----0--0------0--0---|
E||------|--------------------------------|---------------------------------|

        P.M.----|       P.M.----|          P.M.    P.M.---|                
|---------------------------------|-----------------------------|
|---------------------------------|-------8----------7----------|
|-----9-----------9------------9--|-------7----------7----------|
|--7--7-----------7------------7--|-------7----------7------2S--|
|-----0--0-----0--0--0------0--0--|--0----0--0----0--0------0---|
|---------------------------------|-----------------------------|

pre chorus riff

|--------------|----------|----------------------------|
|--------------|----------|----------------------------|
|--------------|--2-------|----------------------------|
|--------------|--2-------|----------------------------|
|--4--------5--|--0-------|----3S-5--4-----5--4--------|
|--2--------3--|----------|-------------5--------5--2--|

|---------------------------------------------------|
|---------------------------------------------------|
|--------------------7--------7--------7--------7/5-|
|----------7-------5---5----5---0--4-4---0-4-4------|
|----------7----------------------------------------|
|---3------5----------------------------------------|


|--------------------------|-------------|
|--------------------------|-------------|
|--5--5--5--5--5--5--5--7--|-------------|
|--3--3--3--3--3--3--3--5--|-------------|
|--------------------------|-------------|
|--------------------------|----0--0--0--|

Chorus riff 
|--------------------|------------------------------|
|--------------------|------------------------------|
|---------------7----|---------------7--9-----------|
|---------------7----|---------------7--9-----------|
|--------------------|------------------------------|
|--7------7--7-------|---7-----7--7--------7-----7--|

|---------------3-------3-----|-------------------|
|---------------3-------3-----|----3--3-----------|
|---------------4-------4-----|----4--4-----------|
|-----------------------------|----5--5--7--7--7--|
|--5------5--5-------5-----5--|----5--5--7--7--7--| (x2)
|--3------3--3-------3-----3--|----3--3--5--5--5--|

Brideg 
|-------------------------|----------|
|-------------------------|----------|
|-------------------------|----------|
|-------------------------|----------| (x4)
|--7--7--5--6--7--6--5----|----5S----|
|--5--5--3--4--5--4--3----|----3S----|

3 Private Property 

|----------------3-----2----------3--|-----2----------------3-----|
|----------------3-----3----------3--|-----3----------------3-----|
|----------------0-----2---2------0--|-----2------2---------0-----|
|---2----------------------2---------|------------2---------------|
|---2------x--x-----------(0)--x-----|-----------(0)-----x--------|
|---0--------------------------------|----------------------------|

|--2----------3-----2--------|-------------|
|--3----------3-----3--------|-------------|
|--2---2------0-----2-----2--|-------------|
|------2------------------2--|-------------|
|-----(0)--x--------------0--|-------------|
|----------------------------|----0--3--0--|

|-------3----2----------3--|-----2---------------3----|--2----------3----2--------|
|-------3----3----------3--|-----3---------------3----|--3----------3----3--------|
|--2----0----2---2------0--|-----2-----2---------0----|--2---2------0----2-----2--|
|--2-------------2---------|-----------2--------------|------2-----------------2--|
|--0------------(0)--x-----|----------(0)-----x-------|-----(0)--x-------------0--|
|--------------------------|--------------------------|---------------------------|

|------------------------|--------|
|------------------------|--------|
|----------2-------------|--2-----|
|----------2-------------|--2-----|
|----------0-------------|--0-----|
|----0--3-------0--3--0--|--------|
    
(Clean)                
Verse riff                         
|---------------------|-------------------|
|---------------1-----|---------------1---|
|-----------2---------|-----------2-------|
|-------2-------------|-------2-----------|
|--(0)----------------|--(0)--------------|
|---------------------|-------------------|

|-------------------------|------------------------|
|-------------3--------3--|---------------3--------|  (X3)
|----------2--------------|--------2---------------|
|-------0-----------0-----|-----0-----(0)----------|
|--(0)--------------------|-------------------3~---|
|-------------------------|------------------------|

After ply the verse riff play the next riff 
|---------------------|-------------------|----------------|
|---------------1-----|---------------1---|------------3---|
|-----------2---------|-----------2-------|---------2------|
|-------2-------------|-------2-----------|------0---------|
|--(0)----------------|--(0)--------------|--(0)-----------|
|---------------------|-------------------|----------------|

Pre chorus riff 
|-------------------------------|
|-------------------------------|
|---------7-----7-----7--7S--5--|
|---------7-----7-----7--7S--5--|
|---------5-----5-----5--5S--3--|
|-------------------------------|

|---------------------------|--------------------------|----------|---------------------------|
|---------------------------|--------------------------|--6-------|---------------------------|
|-----------------7--7S--2--|--------------------------|--5---5---|-----5--5p--4--4--------5--|
|-----------------7--7S--2--|--------------------------|--3---5---|--5--=====--------7--5--5--|
|--3--3--3--3--3--5--5S--0--|--0--0--0--0--0--0--------|--3---3---|------------------5--5--3--|
|---------------------------|--------------------3--0--|----------|---------------------------|

|---------------------------|--------------------------|-------------|---------|
|---------------------------|--------------------------|--6----------|--0------|
|-----------------7--7S--2--|--------------------------|--5-----5----|--0------|
|-----------------7--7S--2--|--------------------------|--3-----5----|--0------|
|--3--3--3--3--3--5--5S--0--|--0--0--0--0--0--0--------|--3-----3----|--2------|
|---------------------------|--------------------3--0--|-------------|--3------|

Chorus riff

|------------|--3-----2-----|---------|--3------2-----|-------3---2---|
|------------|--3-----3-----|---------|--3------3-----|-------3---3---|
|--2---------|--0-----2-----|--2------|--0------2-----|--2----0---2---|
|--2---------|--0-----0-----|--2------|--0------0-----|--2----0---0---|
|--0---------|--------------|--0------|---------------|--0------------|
|------------|--------------|---------|---------------|---------------|

Brideg
 
|------------------------|
|------------------------|
|-5--5--5----3----5------|
|-5--5--5----3----5------|
|-3--3--3----1----3------|
|------------------------|

4 Parental Guidance 
Tuning: Standard

They use guitar-synthesizers and stuff in the intro, and I'm not really sure how they 
it, but this works anyway...

Intro
Rythm fig. one
e|------------------------------|-----------------|
B|-5-----4-----2-----4-----5\4--|-----------------|
G|-4-----4-----4-----4-----4----|-4-4-4-4-----4-4-|
D|-4-----4-----4-----4-----4----|-4-4-4-4--4--2-4-|
A|-2-2-2-2-2-2-2-2-2-2-2-2-2----|-2-2-2-2--4--2-2-|let ring...
E|------------------------------|----------2------|

Repeat fig. one

e|----------------------|
B|----------------------|
G|-4-4-4-4-----7-7--9-9-|
D|-4-4-4-4--4--7-7--9-9-|
A|-2-2-2-2--4--5-5--7-7-|
E|----------2-----------|

Verse.

Rythm fig. one.

Bridge. They play it i a way don't really hear, but it's something like this

Rythm fig. 2
  |   G     |   D    |          A          |
e|-----------------------------------------|
B|--------3--------5---------5-------------|
G|-------4-4---5--5-5-------6-6------7p6---|
D|---5--5-----5--5------7--7------7------7-|
A|--5--------3--3------7---------7---------|
E|-3---3--------------5--5------5--5-------|x2


D|-7--9-9-|
A|-7--9-9-|
E|-5--7-7-|

Chorus.

Rythm fig.3
  |        B          |     A     |D|B|
e|-------------------------------------|
B|-4-----4------2--5\4-----------------|
G|-4-----4------4--4---2-x-x-2-2---7\4-|
D|-4-----4------4--4---2-x-x-2-2---7\4-|
A|-2-x-x-2-x-x-2--2----0-x-x-0-0---5\2-|
E|-------------------------------3-----|X2

Now comes the part I don't know, it's something like this... I think

Rythm fig.4
e|-------------------------|
B|-------------------------|
G|---4--7-----9------------|
D|--4--7---7-9--|    G|-4--|
A|-2--5---7-7---|    D|-4--|
E|-------5------|X3  A|-2--|let ring

5 Rock You All Around the World 

Intro riff 1

E||---------|--------------------------|---------------------------|
B||---------|--------------------------|---------------------------|
G||---------|--------------------------|---------------------------|
D||------4S-|--6--6--7-----------7-----|-----6-----6-----6-----4S--|
A||------2S-|--4--4--4--4--4--4--4--4--|--4--4--4--4--4--4--4--2S--|
E||---------|--------------------------|---------------------------|

|--------------------------|--------------------------|--------------------------|
|--------------------------|--------------------------|--------------------------|
|--------------------------|--------------------------|--------------------------|
|--6--6--7-----------7-----|-----6-----6-----6-----4--|--6--6--7-----------7-----|
|--4--4--4--4--4--4--4--4--|--4--4--4--4--4--4--4--2--|--4--4--4--4--4--4--4--4--|(x2)
|--------------------------|--------------------------|--------------------------|
 
Intro riff 2

E:---------------------|---------|
B:---------------------|--5-5-4--|
G:---------------------|--4-4-4--|
D:---------------------|--4-4-4--| (repeat this part 2 times before the solo)
A:-------2--1------4---|---------|
E:--2--4------4--2-----|---------|

Verse riff 1 and 2
|-------------------------|-----------------------|--------------------------|
|-------------------------|-----------------------|--------------------------|
|--9----9-----9--9--------|--9--9-----9-----7S----|--------9-----9--9--------|
|--9----9-----9--9--------|--9--9-----9-----7S----|--------9-----9--9--------|
|--7----7-----7--7--------|--7--7-----7-----5S----|--------7-----7--7--------|
|----------0--------0--0--|--------0-----0--------|--0--0-----0--------0--0--|

|-----------------------|------------------------|-------------------------|------------|
|-----------------------|------------------------|-------------------------|---------5--|
|--9------8---7S----7S--|--9----9-----9--9-------|--9--9-----9----7S----4--|---------4--|
|--9------9---7S----7S--|--9----9-----9--9-------|--9--9-----9----7S----4--|--4--4------|
|--7------7---5S----5S--|--7----7-----7--7-------|--7--7-----7----5S----2--|--2--2------|
|----0--0---------------|------ --0--------0--0--|--------0-----0----------|------------|


|----------------|---------------------|--------------------------|------------------------|
|--5---4---------|---------------------|--------------------------|------------------------|
|--4---4------2--|---------------------|-----------------------4--|----4-------------------|
|-------------2--|---------------------|-----------------------4--|----4-------------------|
|----------------|---0--0--0--0--0--0--|--0--0--0--0--0--0--0--2--|---2--2--2--2--2--2--2--|
|----------------|---------------------|--------------------------|------------------------|
 
|--------------------------|-------------------------|--------------------------|
|--------------------------|-------------------------|--------------------------|
|--------------------------|-------------------------|--------------------------|
|-----------------------6--|----6--7-----------7-----|-----6-----6-----6--------|
|--2--2--2--2--2--2--2--4--|----4--4--4--4--4--4--4--|--4--4--4--4--4--4--4--4--|
|--------------------------|-------------------------|--------------------------|

|--------------------------|--------------------------|
|--------------------------|--------------------------|
|--------------------------|--------------------------|
|--6--6--7-----------7-----|--6--4-----4-----4-----4--|
|--4--4--4--4--4--4--4--4--|--4--2-----2-----2-----2--|
|--------------------------|--------------------------|
 
Chorus 

E:---------------------|---------|
B:---------------------|--5-5-4--|
G:---------------------|--4-4-4--|
D:---------------------|--4-4-4--| (x2)
A:-------2--1------4---|---------|
E:--2--4------4--2-----|---------|
 
Brideg

|-------------------|---------------------|--------------------|---------|
|---------------10--|---10----9S----------|--------------------|---------|
|-7--------------9--|---9-----9S-------7--|----------7----9----|--6------|
|-7---7---2------7--|---7-----9S-------7--|----7-----7----9----|--6------|
|-5---7---2---------|------------------5--|----7-----5----7----|--4------|
|-----5---0---------|---------------------|----5---------------|---------|

6 Out in the Cold 

  Gtr I
||------------------|------------|------------------|---------------||
||o-----------------|------------|------------------|--------------o||
||------------------|---5-5------|-----5------2-5-2-|-4-5--4--2-----||
||------5-----5-----|-2---2------|---2------2-------|-5-5--5--0-----||
||o---2-----3---3-0-|-----0------|-3------0---------|--------------o||
||--0-----0---------|------------|------------------|---------------||

|-----------|----------|------|
|-----------|----------|------|
|-----------|----------|------|
|-----------|-4--------|-4----|
|------2----|----------|-2----|
|-0---------|----------|-0----|

|-12--15------------|-------------------|
|--------15-(15)----|-14-----12-(12)----|
|-------------------|-----14------------|
|-------------------|-------------------|
|-------------------|-------------------|
|-------------------|-------------------|
                                    ~~
|-12--15-----------------|---------------|
|--------15-(15)\--10-12-|-(12)----12----|
|------------------------|---------------|
|------------------------|---------------|
|------------------------|---------------|
|------------------------|---------------|

|-12--15------------|-------------------|
|--------15-(15)----|-14-----12-(12)----|
|-------------------|-----14------------|
|-------------------|-------------------|
|-------------------|-------------------|
|-------------------|-------------------|


                                   ~~~~
|-12--15-14-(14)-----12-|-(12)---(12)--(12)\---|
|-----------------15----|----------------------|
|-----------------------|----------------------|
|-----------------------|----------------------|
|-----------------------|----------------------|
|-----------------------|----------------------|

|---12---10---9-|--(9)-10--(10)\-7-8-7-(7)\-|---12---15--14-|-(14)--14-(14)--|
|---12---10--10-|-(10)-10--(10)\-8-8-8-(8)\-|---12---13--14-|-(14)--13-(13)--|
|---------------|---------------------------|---------------|----------------|
|---------------|---------------------------|---------------|----------------|
|---------------|---------------------------|---------------|----------------|
|---------------|---------------------------|---------------|----------------|

|---12---10---9-|--(9)-10--(10)\-7-8-7-|---7--7-8---|-8---10-(10)----|
|---12---10--10-|-(10)-10--(10)\-8-8-8-|---8--8-8---|-6----8--(8)----|
|---------------|----------------------|------------|----------------|
|---------------|----------------------|------------|----------------|
|---------------|----------------------|------------|----------------|
|---------------|----------------------|------------|----------------|

  Gtrs II, III
|-------------|---------------------|-------------|-----------|
|-------------|---------------------|-------------|-----------|
|-2---2--5----|-2--(2)S5-(5)---(5)\-|-2---2--5----|-----------|
|-2---2--5----|-2--(2)S5-(5)---(5)\-|-2---2--5----|-4----3----|
|-0---0-----0-|---------------------|-0---0-----0-|-5----5----|
|-------------|---------------------|-------------|-----------|

|-------------|---------------------|-------------|---------------|
|-------------|---------------------|-------------|---------------|
|-2---2--5----|-2--(2)S5-(5)---(5)\-|-2---2--5----|---------------|
|-2---2--5----|-2--(2)S5-(5)---(5)\-|-2---2--5--7-|-(7)------(7)--|
|-0---0-----0-|---------------------|-0---0-----5-|-(5)------(5)--|
|-------------|---------------------|-------------|---------------|

   Verse
||--------------|------------|-------------|-----------------|
||o-------------|------------|-------------|-----------------|
||--------------|------------|-------------|-----------------|
||-----2---5--4-|-(4)--------|----2---5--4-|-(4)-5--5s=7-7---|
||o-0--2---5--5-|-(5)--------|-0--2---5--5-|-(5)-5--3s=5-5---|
||--------------|------------|-------------|-----------------|

|-------------|------------|-------------|----------------|
|-------------|------------|-------------|----------------|
|-------------|------------|-------------|----------------|
|----2---5--4-|-(4)--------|----2---5--4-|-(4)-5--5s=7-7--|
|-0--2---5--5-|-(5)--------|-0--2---5--5-|-(5)-5--3s=5-5--|
|-------------|------------|-------------|----------------|

|-------------|------------|----------|--------|
|-------------|------------|----------|--------|
|-------------|------------|---2------|-(2)----|
|-(7)--3------|-(3)--------|---2------|-(2)----|
|-(5)--3------|-(3)--------|---0------|-(0)----|
|------1------|-(1)--------|----------|--------|

|----------|------------|------------|----------------|
|----------|------------|------------|----------------|
|----------|------------|----5---4---|----------------|
|---3------|-(3)--------|----5---5---|----9--(9)-6----|
|---3------|-(3)--------|------------|-7--7--(7)-7--0-|
|---1------|-(1)--------|-3----------|-0--------------|


 Chorus
 Gtr II
|-------------|-----------------------|-------------|--------------|
|-------------|-----------------------|-------------|------6--8----|
|-------------|--------------5-5--7---|-----------5-|-7------------|
|-------------|-----------------------|-7-----------|--------------|
|-------------|-----------------------|-------------|--------------|
|-------------|-----------------------|-------------|--------------|
|
| Gtr III
|-------------|-----------------------|-------------|--------------|
|-------------|-----------------------|-------------|--------------|
|-2---2--5----|-2--(2)S5-(5)-----(5)\-|-2---2--5----|--------------|
|-2---2--5----|-2--(2)S5-(5)-----(5)\-|-2---2--5----|-4----3-------|
|-0---0-----0-|-----------------------|-0---0-----0-|-5----5-------|
|-------------|-----------------------|-------------|--------------|

|-------------|-----------------------|----------------|---------||
|-------------|-----------------------|----------------|--------o||
|-------------|--------------5-5--7---|--------5---7---|-(7)-----||
|-------------|-----------------------|-7--7-----------|---------||
|-------------|-----------------------|----------------|--------o||
|-------------|-----------------------|----------------|---------||
|
|-------------|-----------------------|----------------|---------||
|-------------|-----------------------|----------------|--------o||
|-2---2--5----|-2--(2)S5-(5)-----(5)\-|-2----2---5-----|---------||
|-2---2--5----|-2--(2)S5-(5)-----(5)\-|-2----2---5---7-|-(7)-----||
|-0---0-----0-|-----------------------|-0----0-------5-|-(5)----o||
|-------------|-----------------------|----------------|---------||

   Bridge
    Gtrs II, III
||-------------|---------------|-----------|-------------||
||o------------|---------------|-----------|------------o||
||-------------|---------------|-----------|-------------||
||-----9---4---|--7--5--5------|----9---4--|--7--5--6-7--||
||o----7---5---|--4--3--2------|----7---5--|--4--3--4-5-o||
||--0----------|-----------3s2-|-0---------|-------------||

 Interlude
  D5                                        Bb5      G5      A5      Bb5 C5

  Gtr IV
|-------1-(1)-----3-|-(3)-----1-(1)-0-----|----------------|-----------------|
|-3---3---------3---|-------3---------3-1-|-------3--------|-----------------|
|---2---------2-----|-----2---------------|-----3----------|-----2-----------|
|-------------------|---------------------|---3----------5-|---2---2---3-----|
|-------------------|---------------------|-1----------5---|-0-------1-----5-|
|-------------------|---------------------|----------3-----|-------------3---|

  D5                                        Bb5 G5           C5A/C#

|-------1-(1)-----3-|-(3)-----1-(1)-0-----|----------------|-----------------|
|-3---3---------3---|-------3---------3-1-|-------3--------|---------------5-|
|---2---------2-----|-----2---------------|-----3----------|-----5-------6---|
|-------------------|---------------------|---3----------5-|---5---5---7-----|
|-------------------|---------------------|-1----------5---|-3-------4-------|
|-------------------|---------------------|----------3-----|-----------------|

  D5
  Gtr II
|-------------------|----------------------|
|-------------------|----------------------|
|-7-----------------|----------------------|
|----7-8-(8)--(8)\--|-7--------------------|
|-------------------|----8-10-(10)--(10)\--|
|-------------------|----------------------|

|------------------|-------------------------|
|------------------|-------------------------|
|------------------|------7-6-6-------6---9--|
|-3----------------|--------------7----------|
|----5s7-(7)\--0-5-|-(5)--------7---7---7----|
|------------------|-------------------------|

|-------------------|----------------------|
|-------------------|----------------------|
|-7-----------------|----------------------|
|----7-8-(8)--(8)\--|-7--------------------|
|-------------------|----8-10-(10)--(10)\--|
|-------------------|----------------------|

|------------------|-------------------------|
|------------------|-------------------------|
|------------------|------7-6-6-------6---9--|
|-3----------------|--------------7----------|
|----5s7-(7)\--0-5-|-(5)--------7---7---7----|
|------------------|-------------------------|


 Guitar Solo
  Gtr II
|-12----12------12------12------12\---|
|-15b17-15b17---15b17---15b17---15\---|
|-------------------------------------|
|-------------------------------------|
|-------------------------------------|
|-------------------------------------|
|
| Gtr III
|                     PM|
|-------------------------------------|
|-------------------------------------|
|-------------------------------------|
|-------------9---------------7-----7-|
|-------------7---------------5-----5-|
|--0------------------0--0------------|


|-10------10------10-----10-------------|-----------------------------------|
|-13b15---13b15---13b15--13b15---(13)\--|-15b17r=====15-15------------15-14-|
|---------------------------------------|-14----(14)-12-14b16r(14)----------|
|---------------------------------------|--------------------------14-------|
|---------------------------------------|-----------------------------------|
|---------------------------------------|-----------------------------------|
|                                                        PM---|
|---------------------------------------|----------------------------------|
|---------------------------------------|----------------------------------|
|-------------------------4----5---4----|----------------------------------|
|--7----7-------7---------5----5---5----|-------------9------------5--7----|
|--4----5-------4-----------------------|-------------7------------5--4----|
|---------------------------------------|--0-------------0-----0-----------|

|------------------------------|---------------22----(22)---------------|
|-14---14--13-(13)-13b14-(13)--|-22b24r(22)-20-22b24-(22)b24-(22)-------|
|------------------------------|----------------------------------21-21-|
|------------------------------|----------------------------------------|
|------------------------------|----------------------------------------|
|------------------------------|----------------------------------------|
|                                               PM---|
|------------------------------|----------------------------------------|
|------------------------------|----------------------------------------|
|------------------------------|----------------------------------------|
|-(7)---7---7---7--------------|-------------9-----------------7------7-|
|-(4)-------3---3--------------|-------------7-----------------5------5-|
|------------------------------|--0-------------0------0----------------|

|---------------5-------------------------|
|-----------------8p5--5b7---[5]b7r=======|
|-(21)\---7-7b9------------7-------7-(7)p=|
|-----------------------------------------|
|-----------------------------------------|
|-----------------------------------------|
|
|-----------------------------------------|
|-----------------------------------------|
|---------------4-5-4---------------------|
|---7---7-7-----5-5-5---------------------|
|---4---5-4-------------------------------|
|-----------------------------------------|

       T      T      T        T        T
|---------------------------------------------------------|
|---------------------------------------------------------|
|-5p0-12p5h7-14p5h7-12p5h7-5--------------------------7-5-|
|----------------------------12p==5h7---------------5-----|
|----------------------------12----------------5--7-------|
|-------------------------------------12p==5h7------------|
|                    PM---------|
|---------------------------------------------------------|
|---------------------------------------------------------|
|---------------------------------------------------------|
|-------------9--------------------------7------------7---|
|-------------7--------------------------5------------5---|
|-0------------------0----------0-------------------------|

           \2/
|--------------------------|
|--------------------------|
|-7-5-9p0-(0)-------(0)-14-|
|--------------------------|
|--------------------------|
|--------------------------|
|
|--------------------------|
|--------------------------|
|---------------4-5--4-----|
|-7---7----7----5-5--5-----|
|-4---5----4---------------|
|--------------------------|
                                                               ~
|-----------------|----------------|-------------------|------------------|
|-----------------|----------------|-------------------|------------------|
|---9-8---8-7---7s|=5---5s4--------|-----9-8---8-7---7s|=5---5-7-(7)------|
|-------7-----7---|---7-----7----7-|-(7)-----7-----7---|---7---------5----|
|-----------------|-----------0----|-------------------|------------------|
|-----------------|----------------|-------------------|------------------|
|                                                              ~
|-----------------|----------------|-------------------|------------------|
|-----------------|----------------|-------------------|------------------|
|-----------------|----------------|-------------------|------------------|
|-----------------|----------------|-------------------|------------------|
|-0-7-6-0-6-5-0-5s|=3-0-3s2-0-0--0-|--0--7-6-0-6-5-0-5s|=3-0-3-5-(5)-0--0-|
|-----------------|----------------|-------------------|------------------|


|---17------17----17-------------------|
|---20b22---20b22-20b22---(20)\--19b20-|
|--------------------------------------|
|--------------------------------------|
|--------------------------------------|
|--------------------------------------|
|            PM---|
|--------------------------------------|
|--------------------------------------|
|--------------------------------------|
|---------9-------------7---------7----|
|---------7-------------5---------5----|
|-0----------0-----0-------------------|

                  ~~~~~
|-----------------------------------15h17h22p=|
|-(19)-19-20---19-20-20----15h17h22-----------|
|---------------------------------------------|
|---------------------------------------------|
|---------------------------------------------|
|---------------------------------------------|
|
|---------------------------------------------|
|---------------------------------------------|
|---------------------4-5---4-----------------|
|---7---7----7--------5-5---5-----------------|
|---4---5----4--------------------------------|
|---------------------------------------------|

|-17p15h17-15h17-15h17-------15h17-15h17----------------------------------|
|----------------------15----------------17p15h17p15----15----------------|
|----------------------------------------------------17----17s14-14-19p14h|
|-------------------------------------------------------------------------|
|-------------------------17----------------------------------------------|
|-------------------------------------------------------------------------|
|
|                             PM---------|
|-------------------------------------------------------------------------|
|-------------------------------------------------------------------------|
|-------------------------------------------------------------------------|
|-----------------------9--------------------------7--------------7-------|
|-----------------------7--------------------------5--------------5-------|
|--0--------------------------0-----------0-------------------------------|

|-------------------------------------------|
|-------------------------------------------|
|-17p14----14-------------------------------|
|-------19----19p14-17p14----14-------------|
|-------------------------19----------------|
|-------------------------------17-(17)\----|
|
|-------------------------------------------|
|-------------------------------------------|
|--------------------------------4---5---4--|
|--7-----7-----7-----------------5---5---5--|
|--4-----5-----4----------------------------|
|-------------------------------------------|

 Out-Chorus
|----------|------------|----------|--------|
|----------|------------|----------|--------|
|----------|------------|---2------|-(2)----|
|---3------|-(3)--------|---2------|-(2)----|
|---3------|-(3)--------|---0------|-(0)----|
|---1------|-(1)--------|----------|--------|


|----------|------------|------------|----------------|
|----------|------------|------------|----------------|
|----------|------------|----5---4---|----------------|
|---3------|-(3)--------|----5---5---|----9--(9)-6----|
|---3------|-(3)--------|------------|-7--7--(7)-7--0-|
|---1------|-(1)--------|-3----------|-0--------------|


                                                                5x
||--------------|---------------------|-------------|-----------||
||o-------------|---------------------|-------------|----------o||
||--2---2--5----|-2--(2)S5-(5)---(5)\-|-2---2--5----|-----------||
||--2---2--5----|-2--(2)S5-(5)---(5)\-|-2---2--5----|-4----3----||
||o-0---0-----0-|---------------------|-0---0-----0-|-5----5---o||
||--------------|---------------------|-------------|-----------||

 Outro
    Gtr II
|-----------------|------------------------|-------------------|--------*|
|-----------------|------------------------|-------------------|--------*|
|---9-8---8-7---7s|=5----5s=4--------------|-----9-8---8-7-----|--------*|
|-------7-----7---|---7--------7----7------|-(7)-----7-----7-7-|-(7)----*|
|-----------------|---------------0--------|---------------0-5-|-(5)----*|
|-----------------|------------------------|-------------------|--------*|
|
| Gtr III
|-----------------|------------------------|-------------------|--------*|
|-----------------|------------------------|-------------------|--------*|
|-2-----2---5-----|-2---(2)S5-(5)-----(5)\-|--2------2---5-----|--------*|
|-2-----2---5-----|-2---(2)S5-(5)-----(5)\-|--2------2---5---7-|-(7)----*|
|-0-----0-------0-|------------------------|--0------0-------5-|-(5)----*|
|-----------------|------------------------|-------------------|--------*|


7 Wild Nights, Hot & Crazy Days 

tuning D#

Intro riff 
D#||----------------------------------|--------------------------|
A#||--------------8---8-7-x-8-8-7-----|---------8---8-7------8-7-|
F#||---/9-x-11----7---7-7-x-7-7-7--9--|-/9-x-11-7---7-7------7-7-|
C#||---/7---7----------------------7--|-/7---7-------------------|
G#||----------------------------------|-----------------0-4-0----|
D#||----------------------------------|--------------------------|

|----------------------------------|--------------------------|
|--------------8---8-7-x-8-8-7-----|---------8---8-7------8-7-|
|---/9-x-11----7---7-7-x-7-7-7--9--|-/9-x-11-7---7-7------7-7-|
|---/7---7----------------------7--|-/7---7-------------------|
|----------------------------------|-----------------0-4-0----|
|----------------------------------|--------------------------|

Verse riff
|---------------------------------|
|---------------------------------|
|---------7----------7-x-7-7-7----|
|--7---7--5----7--7--5-x-5-5-4----|
|--7---5-------7--5------------7--|
|--5-----------5------------------|




8 Hot for Love 

The intro have a Heavy Phasing & Effects
Intro riff 1
E||------------||-------------------------|-----------------------|
B||------------||--------6----------------|-----------------------|
G||*----------*||--------------7-------8--|------7----------------|
D||*----------*||-----7-------------------|-----------5--7--------|
A||------------||--5--------5-------5-----|----5------------8--7--| (x2)
E||------------||-------------------------|-----------------------|

After intro the two guitar play this part 

Riff 2
|----------------------------|----------------------------|
|----------------------------|----------------------------|
|--10---x-----7--x-----5--x--|-----7--x-----10--10--------|
|--10---x--0--7--x--0--5--x--|--0--7--x--0--10--10--0--0--|
|----------------------------|----------------------------|
|----------------------------|----------------------------|

|----------------------------|----------------------------|
|----------------------------|----------------------------|
|--10---x-----7--x-----5--x--|-----7--x-----12--12--------| (x2)
|--10---x--0--7--x--0--5--x--|--0--7--x--0--12--12--0--0--|
|----------------------------|----------------------------|
|----------------------------|----------------------------|

Riff 3
Verse 1 and  2
The rff 3 is the same for the two verses and repeat this part 2 times before
the play the next riff (riff 4)

|-------------------------|-----------------------|--------------------------|
|-------------------------|-----------------------|--------------------------|
|-------------------------|-----------------7\----|--------------------------|
|-------------------------|-----------------7\----|--------------------------|
|-------------------------|-----------------------|--------------------------|
|-7--7--7--7--7--7--7--7--|--7--7--7--7--7--------|--7--7--7--7--7--7--7--7--|
............................................          ..................... .
|--------------------------|-----------------------|--------------------------|
|--------------------------|-----------------------|--------------------------|
|--------------------------|-----------------------|--------------------------|
|--------------------------|-----------------------|--------------------------|
|--------------------------|--6----6----6--6----6--|---4/6/4------4----6------|
|--7--7--7--7--7--7--7--7--|--4----4----4--4----4--|------------7---------7b--|
..........................
|----------------------|-----------------------|
|----------------------|-----------------------|
|----------------------|-----------------------|
|----------------------|-----------------------|
|----6-----6--6-----6--|---x--6-----6--6--6/---|
|----4-----4--4-----4--|---x--4-----4--4--4/---|

Riff 4 
Pre chorus 
|---------------------|----------------------|----------------------|
|---------------------|----------------------|----------------------|
|---------------------|----------------------|----------------------|
|--9----9----9--9--9--|--5----5----5--5--5/--|--7----7----7--7--7\--|
|--9----9----9--9--9--|--5----5----5--5--5/--|--7----7----7--7--7\--|
|--7----7----7--7--7--|--3----3----3--3--3/--|--5----5----5--5--5\--|

|--------------------------|---------------------------|
|--------------------------|---------------------------|
|--------------------------|---------------------------|
|--4-----4-----4--4--4/----|--9-----9-----9--9-----9s--|
|--4-----4-----4--4--4/----|--9-----9-----9--9-----9---|
|--2-----2-----2--2--2/----|--7-----7-----7--7-----7---|

|----------------------|-----------------------|
|----------------------|-----------------------|
|----------------------|-----------------------|
|--5----5-----5--5--5--|--2----2----2----------|
|--5----5-----5--5--5--|--2----2----2----5--4--|
|--3----3-----3--3--3--|--0----0----0----3--2--|

The chorus is the same riff 2  in the chorus only play this riff 2 times,
in two guitars after to play the prechorus and the end of song too

Bride
|-----------------|-----------------|-------------|------------------------|
|-----------------|-----------------|-------------|------------------------|
|---------9--\----|-------7------7--|----5-----5--|----2-----5----2--------|
|---------7--\----|-------5------4--|----3--------|--------2-----------2---|
|--0--------------|--0--------------|-------------|------------------------|
|-----------------|-----------------|-------------|------------------------|

|----------------|-----------------|----------------|----------------------|
|----------------|-----------------|----------------|----------------------|
|---------9-\----|--------7-----7--|----5----5--5---|---5-----2--5-----2---|
|---------7-\----|--------5-----4--|----3----3--3---|------3--------3------|
|--0-------------|--0--------------|----------------|----------------------|
|----------------|-----------------|----------------|----------------------|


9 Reckless 

tuning D#

D#||------------------------|-------------------------|
A#||------------------------|-------------------------|
F#||--------5----S--2-------|--5----S--2-------0h--2--|
C#||--------5----S--2-------|--5----S--2-------0h--2--|
G#||--0--0---------------0--|---------------0---------|
D#||------------------------|-------------------------|

|----------------------|-----------------------|
|----------------------|-----------------------|
|--------5------4------|--------5------4-------|
|--------5------5------|--------5------5-------|(x4)
|----------------------|-----------------------|
|--1--1----------------|--3--3--------------3--|  

Solo 1
|-------------------|--20b---20---19--17---------|--------20-----------|
|--20b------20------|--------------------20--17--|--20b-------20br-----|
|---------------21--|----------------------------|---------------------|
|-------------------|----------------------------|---------------------|
|-------------------|----------------------------|---------------------|
|-------------------|----------------------------|---------------------|

|-------------------------------|--------------17--17--17--|---19---20--22b~----|
|----20b--20-17-----------------|--------------------------|--------------------|
|----------------19b-----19p-17-|--------------------------|--------------------|
|-------------------------------|--19~----\----------------|--------------------|
|-------------------------------|--------------------------|--------------------|
|-------------------------------|--------------------------|--------------------|

|--15-17-15----15----------------------------------|-------------------------------------|
|-----------17----17-15-17----15-------------------|-------------------------------------|
|--------------------------17----17-16-17-16-14-16-|--9p-0-7p-0-5p-0-4p-0-2p-0-----------|
|--------------------------------------------------|---------------------------5p-4------|
|--------------------------------------------------|--------------------------------7p-5-|
|--------------------------------------------------|-------------------------------------|

Riff 2

verse 1 and 2
|--------------------------|--------------------------|
|--------------------------|--------------------------|
|--------------------------|--------------------------|
|--2--------------------3--|--------------------------|
|--0--0--0--0--0--0--0--0--|--0--0--0--0--0--0--0--0--|
|--------------------------|--------------------------|

     PM PM PM PM PM PM       PM PM PM PM                  PM PM PM PM PM PM      
|--------------------------|-----------------------|-------------------------|
|--------------------------|-----------------------|-------------------------|
|--------------------------|-----------------------|-------------------------|
|--2--------------------2--|-----------------------|--2--------------------3-|
|--3--3--3--3--3--3--3--3--|--3--3--3--3--2--------|--0--0--0--0--0--0--0--0-|
|--------------------------|-----------------3~----|------------------------|

  PM PM PM PM PM PM PM PM       PM PM PM PM PM PM                                      
|--------------------------|--------------------------|---------------------|
|--------------------------|--------------------------|---------------------|
|--------------------------|--------------------------|---------------------|
|--------------------------|--2-----------------------|---------------------|
|--0--0--0--0--0--0--0--0--|--3--3--3--3--3--3--3-----|-------3-----2-------|
|--------------------------|-----------------------3--|----3--3--3--3-------|

Riff 3
Prechorus
|----------------|------------------|
|----------------|------------------|
|--------5-----7-|------------------|
|--2-----5-----7-|--2------3--5-----|
|--0-------------|--0------3--5-----|
|----------------|------------------|

|----------------|--------------------------------------|
|----------------|--------------------------------------|
|--------5-----7-|--------------------------------------|
|--2-----5-----7-|--------------------------------------|
|--0-------------|--------------------------------------|
|----------------|-1-1-1-1-1-1-1-1-1--3-3-3-3-3-3-3-3-3-|

Riff 4
brideg
|---------------------------------------|----------------------------------------|
|---------------------------------------|----------------------------------------|
|---------------------------------------|----------------------5--5-----5--5-----|
|--5---7--7----2--5---7--7--2--5--7--7--|----------------------5--5-----5--5-----|
|--3---5--5----0--3---5--5--0--3--5--5--|--5--5--7--7-------0--------0--------0--|
|---------------------------------------|--3--3--5--5----------------------------|

|---------------------------------------|-----------------------------------|
|---------------------------------------|-----------------------------------|
|---------------------------------------|----------3----0----x--3---0-------|
|--5---7--7----2--5---7--7--2--5--7--7--|----------3----0----x--3---0-------|
|--3---5--5----0--3---5--5--0--3--5--5--|-----5-----------------------------|
|---------------------------------------|--5--3-----------------------0--1--|

|-------------------------------|
|-------------------------------|
|---------3----0----x--3----0---|
|---------3----0----x--3----0---|
|-----5-------------------------|
|--2--3-------------------------|

Solo riff 5
|---------------------|------------------|
|---------------------|------------------|
|---------------------|------------------|
|--3-----2---2--------|--2---2--2--------|
|--0-----3---3--2-----|--0---0--3---5----|
|-----------------3~--|-------------3----|

|---------------------|---------------------|
|---------------------|---------------------|
|---------------------|---------------------|
|--3-----2---2--------|--2---2--2-----------|
|--0-----3---3--2-----|--0---0--3---5---2---|
|-----------------3~--|-------------3---0---|

All the song in this album was made for other guitar players not for me
I only changes the part’s that i thing will be sound better thanks all the 
metalmaniacs and long live judas priest 
Made :ju.da.s
Metalgod.jp@hotmail.com
comments
We did not receive enough feedback on this tab! Please rate:
print report bad tab
1 2 3 4 5
I want to post or [tab]
guest
You may want to rate the tab now too:
select rating
Please do not post tabs as comments. Select "correction" instead!