Oops, an error
Loading. Please wait.

Turbo Lover Tab

ver2
ver2

Solo

Whole song

Interactive

More versions @911Tabs.com
3,596 views 6 this week
no commentswrite comment
1 2 3 4 5
excellent!
x 1
Autoscroll
+/-
esc
set tempo
stop
Difficulty
intermediate
WARNING: You are trying to view
                                    content from Ultimate-Guitar.com
                                    in an unauthorized application,
                                    which is prohibited.

                                    Please use an official Ultimate
                                    Guitar Tabs application for iPhone,
                                    iPad or Android to access legitimate
                                    chords, guitar, bass, and drum tabs
                                    from Ultimate-Guitar.com database.

                                    Type "ultimate guitar tabs" in Apple
                                    App Store's or Android Market's
                                    search to find the application.
 Another hard to come by tab that no one could seem to find. It's a metal classic, have a
nice day.

- Paul Rox

                               TURBO LOVER (SOLO)
                           As recorded by Judas Priest
                           (From the 1986 Album TURBO)

Words by Halford, Tipton, Downing
Music by Rob Halford, Glenn Tipton, K.K. Downing
Arranged by Halford, Tipton, Downing
Transcribed by Rhett Cutshaver

          E5                   C5                   A5                   D5
      0 2 2 x x 0          x 3 5 0 x x          x 0 2 2 x 0          x x 0 2 3 5

          G5
      3 5 5 x 3 3

 Intro
  Q=145
 4/4
  Gtr I
|----------|------------|------------|--------|
|----------|------------|------------|--------|
|----------|------------|------------|--------|
|----------|------------|------------|--------|
|----------|------------|------------|--------|
|-0--------|-(0)--------|-(0)--------|-(0)----|


 4/4
  Gtr I
|----------|------------|------------|--------|
|-5--------|-(5)--------|-(5)--------|-(5)----|
|-4--------|-(4)--------|-(4)--------|-(4)----|
|-2--------|-(2)--------|-(2)--------|-(2)----|
|-2--------|-(2)--------|-(2)--------|-(2)----|
|----------|------------|------------|--------|


 4/4
  Gtr I
|---------|---------|---------|-----|
|---------|---------|---------|-----|
|---------|---------|---------|-----|
|---------|---------|---------|-----|
|---------|---------|---------|-----|
|---------|---------|---------|-----|


   Verse 1
   4/4
    Gtr I
||----------|---------|--------------|---------||
||o---------|---------|--------------|--------o||
||----------|---------|--------------|---------||
||----------|---------|-7S9-(9)------|-(9)-----||
||o---------|---------|-5S7-(7)------|-(7)----o||
||----------|---------|--------------|---------||


 4/4
|----------|------------|----------|-----------|
|----------|------------|----------|-----------|
|----------|------------|----------|-----------|
|-7--------|-(7)--------|-5--------|-2---------|
|-5--------|-(5)--------|-3--------|-0----5----|
|----------|------------|----------|------3----|


 4/4
|----------|---------------|----------------|--------|
|----------|---------------|----------------|--------|
|----------|--------7----7-|-(7)S9-(9)------|-(9)----|
|----------|--------7----7-|-(7)S9--9-------|-(9)----|
|-2--------|-(2)-------7---|--------7-------|-(7)----|
|-0--------|-(0)-----------|----------------|--------|


   4/4
||------------|------------|-----------|---------||
||o-----------|------------|-----------|--------o||
||------------|------------|-----------|---------||
||--7----9S===|=12----9----|-7--9------|-(9)-----||
||o-5----7S===|=10----7----|-5--7------|-(7)----o||
||------------|------------|-----------|---------||


 4/4
|----------|------------|----------|-----------|
|----------|------------|----------|-----------|
|----------|------------|----------|-----------|
|-7--------|-(7)--------|-5--------|-2---------|
|-5--------|-(5)--------|-3--------|-0---------|
|----------|------------|----------|------3----|


|----------|---------------|----------------|--------|
|----------|---------------|----------------|--------|
|----------|--------7----7-|-(7)S9-(9)------|-(9)----|
|----------|--------7----7-|-(7)S9--9-------|-(9)----|
|-2--------|-(2)-------7---|--------7-------|-(7)----|
|-0--------|-(0)-----------|----------------|--------|


 4/4
  Gtr I
|----------|------------|----------|----------------|
|----------|------------|----------|----------------|
|----------|------------|----------|----------------|
|-7--------|-(7)--------|-5--------|-(5)------------|
|-5--------|-(5)--------|-3--------|-(3)------------|
|----------|------------|----------|----------------|
|
| Gtr II
|----------|------------|----------|-------------x--|
|----------|------------|----------|-------------x--|
|----------|------------|----------|----------------|
|----------|------------|----------|----------9\----|
|----------|------------|----------|----------7\----|
|----------|------------|----------|----------------|


 4/4
  Gtr I
|---------------|----------------|-----------------|-----------------|
|---------------|----------------|-----------------|-----------------|
|---------------|----------------|-----------------|-----------------|
|---------------|----------------|-----------------|-----------------|
|-2-------------|-2--------------|-----------------|-----------------|
|-0-------------|-0--------------|-----------------|-----------------|
|
| Gtr II
|---------------|----------------|-----------------|-----------------|
|---------------|----------------|-----------------|-----------------|
|---------------|------------0---|-----------------|-----------------|
|----2---2------|-2----2-----0---|-----2---2-------|-2----2-----0----|
|-2--2-2-2------|-2----2-------2-|-----2---2-------|-2----2-----0h2--|
|-0----0----0-0-|----0---0-0-----|-0-0---0---0-0-0-|-0--0---0-0------|


||------------|------------|-----------|---------||
||o-----------|------------|-----------|--------o||
||------------|------------|-----------|---------||
||--7----9S===|=12----9----|-7--9------|-(9)-----||
||o-5----7S===|=10----7----|-5--7------|-(7)----o||
||------------|------------|-----------|---------||


|----------|------------|----------|-----------|
|----------|------------|----------|-----------|
|----------|------------|----------|-----------|
|-7--------|-(7)--------|-5--------|-2---------|
|-5--------|-(5)--------|-3--------|-0---------|
|----------|------------|----------|------3----|


  Gtr I
|---------------|------------------|---------------------|------------------|
|---------------|------------------|---------------------|------------------|
|---------------|----------7-----7-|-(7)S9-(9)-----------|-(9)--------------|
|---------------|----------7-----7-|-(7)S9--9------------|-(9)--------------|
|-2-------------|-(2)----------7---|--------7------------|-(7)--------------|
|-0-------------|-(0)--------------|---------------------|------------------|
|
| Gtr II
|---------------|------------------|---------------------|------------------|
|---------------|------------------|---------------------|------------------|
|---------------|--------------0---|---------------------|------------------|
|----2---2------|--2-----2-----0---|--------2----2-------|--2-----2-----0---|
|-2--2-2-2------|--2-----2-------2-|--------2----2-------|--2-----2-----0h2-|
|-0----0----0-0-|------0---0-0-----|--0--0-----0---0-0-0-|--0---0---0-0-----|


  Gtrs I, II
|----------|----------|----------|------------|----------|------------------|
|----------|----------|----------|------------|----------|------------------|
|----------|----------|----------|------------|----------|------------------|
|-7--------|-7--------|-5--------|-2----------|-4--------|-7-7-7-7-7-7-7-7--|
|-5--------|-5--------|-3--------|-0----5-----|-2--------|-7-7-7-7-7-7-7-7--|
|----------|----------|----------|------3--0--|----------|------------------|


   Chorus
    Gtrs I, II
||------------|-----------|--------------|-3--------------|
||o-----------|-----------|--------------|-3----3---(3)/--|
||------------|-----------|--------------|-0----2---(2)/--|
||------------|-----------|-5------------|------0---------|
||o-5----7----|-5----7----|---7-(7)------|----------------|
||------------|-----------|--------------|----------------|


  Gtrs I, II
|-----------|-----------|--------------|------||
|-----------|-----------|--------------|-----o||
|-----------|-----------|--------------|------||
|-----------|-----------|-5------------|------||
|-5----7----|-5----7----|---7-(7)------|-----o||
|-----------|-----------|--------------|------||


 Verse 2
|---------|---------|-----------------|-----------------|
|---------|---------|-----------------|-----------------|
|---------|---------|-----------------|-----------------|
|---------|---------|-----9-----9-----|-----9-----9-----|
|---------|---------|-----7-----7-----|-----7-----7-----|
|---------|---------|-0-0---0-0---0-0-|-0-0---0-0---0-0-|


|-------------------|------------------|-----------------|
|-------------------|------------------|-----------------|
|-------------------|------------------|-----------------|
|-----10-----10-----|-----10-----10----|-----2-----2-----|
|------7------7-----|------7------7--0-|-0-0-0-0-0-0-0-0-|
|-0-0----0-0----0-0-|-0-0----0-0-------|-----------------|


          ~
|-------------|-----------------|---------------|
|-------------|-----------------|---------------|
|-----0-------|-----------------|---------------|
|-----0---4---|-----9-----9-----|-----9-----7---|
|-0-0-----5---|-----7-----7-----|-----7-----5---|
|-------------|-0-0---0-0---0-0-|-0-0---0-0-----|


|-----------------|-----------------|-------------------|------------------|
|-----------------|-----------------|-------------------|------------------|
|-----------------|-----------------|-------------------|------------------|
|-----9-----9-----|-----9-----9-----|-----10-----10-----|-----10-----10----|
|-----7-----7-----|-----7-----7-----|------7------7-----|------7------7--0-|
|-0-0---0-0---0-0-|-0-0---0-0---0-0-|-0-0----0-0----0-0-|-0-0----0-0-------|


                            ~
|-----------------|-------------|--------------------|------|
|-----------------|-------------|--------------------|------|
|-----------------|-----0-------|--------------------|------|
|-----2-----2-----|-----0---4---|-----9-----9-(9)\-0-|-4----|
|-0-0-0-0-0-0-0-0-|-0-0-----5---|-----7-----7-(7)\---|-2----|
|-----------------|-------------|-0-0---0-0----------|------|


   Chorus
    Gtrs I, II
||-----------|-----------|--------------|-3------------|
||o----------|-----------|--------------|-3----3---(3)/|
||-----------|-----------|--------------|-0----2---(2)/|
||-----------|-----------|-5------------|------0-------|
||o-5---7----|-5----7----|---7-(7)------|--------------|
||-----------|-----------|--------------|--------------|


|-----------|-----------|--------------|------||
|-----------|-----------|--------------|-----o||
|-----------|-----------|--------------|------||
|-----------|-----------|-5------------|------||
|-5----7----|-5----7----|---7-(7)------|-----o||
|-----------|-----------|--------------|------||


 Instrumental Interlude
 2/2
  Gtr III
|--------------|-------------|---------0----|-0----|
|-------3------|-3-------2---|-------1------|-1----|
|-----4---4----|-4-----3-----|-----2--------|-2----|
|---4----------|-4--4--------|---2----------|-2----|
|-2------------|-2-----------|-0------------|-0----|
|--------------|-------------|--------------|------|


  Gtr III
|---------3----|-(3)-----2--0-|---2----------|-3----3-2-----|
|---------3----|-(3)----------|-----3---3----|-2--------3---|
|-------0------|--0-----------|---2---2------|-3----------2-|
|-----0--------|--0-----------|-0------------|-0------------|
|---2----------|--2-----------|--------------|--------------|
|-3------------|--3-----------|--------------|--------------|


  Gtr I
   ~~~~~~~~~~~~~~~~~~~~~~~~~~~~~~~~~~~~~~~~~~
|-------------------|------------------------15--17-|
|-17b19=============|=(17)b19=======(17)b19=========|
|-------------------|-------------------------------|
|-------------------|-------------------------------|
|-------------------|-------------------------------|
|-------------------|-------------------------------|
|
| Gtr III
|------------2------|---2------3p=2-----------------|
|----------3---3----|---3-------------3-------------|
|--------2----------|---2---------------------2-----|
|--0----------------|---0---------------------------|
|-------------------|-------------------------------|
|-------------------|-------------------------------|


   ~~~~~~~~~~~~~~~~~~~~~~~~~~
|-16b17=============|=16b18=====|
|-------------------|-----------|
|-------------------|-----------|
|-------------------|-----------|
|-------------------|-----------|
|-------------------|-----------|
|
|------------1------|--1--------|
|----------2---0----|--2--------|
|--------2----------|--2--------|
|--0----------------|--0--------|
|-------------------|-----------|
|-------------------|-----------|


  Gtr I
                                             ~~~~~~~~~~~~~~~~~
|-17b19=============|=(17)b19r=========|====17-------|---(17)---------|
|-20----------------|------------------|-------------|----------------|
|-------------------|------------------|-------------|----------------|
|-------------------|------------------|-------------|----------------|
|-------------------|------------------|-------------|----------------|
|-------------------|------------------|-------------|----------------|
|
| Gtr III
|------------3------|---3---------2--0-|-2-----------|----------------|
|--------------3----|---3--------------|-3-----------|-3-----------3--|
|----------0--------|---0--------------|--------2----|----------2-----|
|--------2----------|---2--------------|-------------|----------------|
|--3----------------|---3--------------|-------------|----------------|
|-------------------|------------------|-------------|----------------|


 Solo
  E5
 4/4
  Gtr IV
  || |  |  | | |  |    | |  |  | | |   | |
  // /  /  / / /  /    / /  /  / / /   / /

    Gtr I
|-------------------|---------------------|
|-------------------|---------------------|
|-------------------|---------------------|
|----9-(9)S2------2S|==9---(9)S2--(2)S=9--|
|-------------------|---------------------|
|-------------------|---------------------|
|
| Gtr II
|-------------------|---------------------|
|-------------------|---------------------|
|---16S====9--(9)S==|=16--(16)-9--(9)-16--|
|-------------------|---------------------|
|-------------------|---------------------|
|-------------------|---------------------|


  C5
   | || | || | |   | | |  | || |      |
   / // / // / /   / / /  / // /      /

   ~~
|---------------|-------------------------|
|---------------|-------------------------|
|------------7--|-------------------------|
|--8---10-------|-10---9--7----9b10---9---|
|---------------|-------------------------|
|---------------|-------------------------|
|
|---------------|-------------------------|
|-----------15--|-------------------------|
|-15---17-------|-17--16-14---16b17-(16)--|
|---------------|-------------------------|
|---------------|-------------------------|
|---------------|-------------------------|


  A5                                     D5  G5
  Gtr IV
    |  | |  | || |      |      |  | |  | |    |
    /  / /  / // /      /      /  / /  / /    /

        Gtr I
|--------------------------|-----------------------|
|--------------------------|-----------------------|
|--------------------------|-----------------------|
|--(9)---7-------9b10--(9)-|--(9)---7--------------|
|-----------7--------------|-----------9---9S10--7-|
|--------------------------|-----------------------|
|
| Gtr II
|--------------------------|-----------------------|
|--------------------------|-----------------------|
|-(16)--14------16----(16)-|-(16)--14--------12----|
|----------14--------------|----------16--------14-|
|--------------------------|-----------------------|
|--------------------------|-----------------------|


  E5                                 D5
   |   |||| |||  | |    |   |    |   |    |
   /   //// ///  / /    /   /    /   /    /

   \2
|--------------|----------------------------7h8h10--|
|--------------|---------------------7-8-10---------|
|--------------|-----------------7-9----------------|
|--------------|--------7-7-9-10--------------------|
|--7------7----|-7-9-10-----------------------------|
|--------------|------------------------------------|
|
|  \2________________________________________________
|--------------|------------------------------------|
|--------------|------------------------------------|
|--------------|------------------------------------|
|-14-----------|------------------------------------|
|--------------|------------------------------------|
|--------------|------------------------------------|


  E5
  Gtr IV
   | | | |  |   | |  |     | |  |   | |  |   | |
   / / / /  /   / /  /     / /  /   / /  /   / /

  Gtr I
   ~~                      ~~                ~~
|-12--19--(19)S12--(12)S|=19--(19)S12--(12)S19--|
|-----------------------|-----------------------|
|-----------------------|-----------------------|
|-----------------------|-----------------------|
|-----------------------|-----------------------|
|-----------------------|-----------------------|
|
| Gtr II
|  ~~
|-----------------------|-----------------------|
|-----------------------|-----------------------|
|--9--16--(16)S=9---(9)S|=16--(16)S=9---(9)S16--|
|-----------------------|-----------------------|
|-----------------------|-----------------------|
|-----------------------|-----------------------|


  C5
   | || | || | |   | | |  | | | ||
   / // / // / /   / / /  / / / //

                          ~~
|-18---20---22--|-20--19S17--17---|
|---------------|-----------------|
|---------------|-----------------|
|---------------|-----------------|
|---------------|-----------------|
|---------------|-----------------|
|
|---------------|-----------------|
|-----------15--|-----------------|
|-15---17-------|-17--16-14-------|
|---------------|-----------------|
|---------------|-----------------|
|---------------|-----------------|


  A5                                                   D5 G5
  Gtr IV
   |  |  |  |     |    |    |     |       |     |  |  ||    |
   /  /  /  /     /    /    /     /       /     /  /  //    /

  Gtr I
|-----------------------12-------17-16-|----22-16-------0-/15----|
|--------------------------15----------|-17-------17\---------17-|
|-------------14-13-----------13-------|-------------------------|
|----------14-------14-----------------|-------------------------|
|-12-11-12-----------------------------|-------------------------|
|--------------------------------------|-------------------------|


  E5                               D5
   |  |||||||  |   |   |   |   |   |   |
   /  ///////  /   /   /   /   /   /   /

|------------|----------------------------------|
|-17\--------|----------------------------------|
|------------|----------------------------------|
|------------|----------------------------------|
|------------|----------------------------------|
|------------|-x-x-x-x-x-x-x-x-x-x-x-x-x-x-x-x--|


 Verse 3
  Gtrs I, II
|-----------------|-----------------|-------------------|------------------|
|-----------------|-----------------|-------------------|------------------|
|-----------------|-----------------|-------------------|------------------|
|-----9-----9-----|-----9-----9-----|-----10-----10-----|-----10-----10----|
|-----7-----7-----|-----7-----7-----|------7------7-----|------7------7--0-|
|-0-0---0-0---0-0-|-0-0---0-0---0-0-|-0-0----0-0----0-0-|-0-0----0-0-------|


  Gtrs I, II
                            ~
|-----------------|-------------|-----------------|---------------|
|-----------------|-------------|-----------------|---------------|
|-----------------|-----0-------|-----------------|---------------|
|-----2-----2-----|-----0---4---|-----9-----9-----|-----9-----7---|
|-0-0-0-0-0-0-0-0-|-0-0-----5---|-----7-----7-----|-----7-----5---|
|-----------------|-------------|-0-0---0-0---0-0-|-0-0---0-0-----|


|-----------------|-----------------|-------------------|------------------|
|-----------------|-----------------|-------------------|------------------|
|-----------------|-----------------|-------------------|------------------|
|-----9-----9-----|-----9-----9-----|-----10-----10-----|-----10-----10----|
|-----7-----7-----|-----7-----7-----|------7------7-----|------7------7--0-|
|-0-0---0-0---0-0-|-0-0---0-0---0-0-|-0-0----0-0----0-0-|-0-0----0-0-------|


                            ~
|-----------------|-------------|--------------------|------|
|-----------------|-------------|--------------------|------|
|-----------------|-----0-------|--------------------|------|
|-----2-----2-----|-----0---4---|-----9-----9-(9)\-0-|-4----|
|-0-0-0-0-0-0-0-0-|-0-0-----5---|-----7-----7-(7)\---|-2----|
|-----------------|-------------|-0-0---0-0----------|------|


 Chorus
|-----------|-----------|--------------|-3------------|
|-----------|-----------|--------------|-3----3--(3)--|
|-----------|-----------|--------------|-0----2--(2)--|
|-----------|-----------|-5------------|------0-------|
|-5----7----|-5----7----|---7-(7)------|--------------|
|-----------|-----------|--------------|--------------|


|-----------|-----------|--------------|-----*|
|-----------|-----------|--------------|-----*|
|-----------|-----------|--------------|-----*|
|-----------|-----------|-5------------|-----*|
|-5----7----|-5----7----|---7-(7)------|-----*|
|-----------|-----------|--------------|-----*|


Tablature Legend
----------------
 h   - hammer-on
 p   - pull-off
 b   - bend
 pb  - pre-bend
 r   - bend release (if no number after the r, then release immediately)
 /\  - slide into or out of (from/to "nowhere")
 s   - legato slide
 S   - shift slide
  - natural harmonic
[n]  - artificial harmonic
n(n) - tapped harmonic
 ~   - vibrato
 tr  - trill
 T   - tap
 TP  - trem. picking
 PM  - palm muting
\n/  - tremolo bar dip; n = amount to dip
 \n  - tremolo bar down
 n/  - tremolo bar up
/n\  - tremolo bar inverted dip
 =   - hold bend; also acts as connecting device for hammers/pulls
   - volume swell (louder/softer)
 x   - on rhythm slash represents muted slash
 o   - on rhythm slash represents single note slash

Misc Legend
-----------
 |  - bar
||  - double bar
||o - repeat start
o|| - repeat end
*|  - double bar (ending)
 :  - bar (freetime)
 $  - Segno
 &  - Coda
Tempo markers -  = BPM(8/16=s8/s16), where s8 = swing 8ths, s16 = swing 16ths

comments
We did not receive enough feedback on this tab! Please rate:
print report bad tab
1 2 3 4 5
I want to post or [tab]
guest
You may want to rate the tab now too:
select rating
Please do not post tabs as comments. Select "correction" instead!