Oops, an error
Loading. Please wait.

Worth Fighting For Tab

ver2
ver2

Whole song

Interactive

More versions @911Tabs.com
24,083 views 36 this week
3 commentsread comments
1 2 3 4 5
excellent!
x 14
Autoscroll
+/-
esc
set tempo
stop
Contributor
Difficulty
novice
Hey! There's an official Ultimate Guitar app which is ideal
for learning songs when you're away from computer. Get the app
WARNING: You are trying to view
                                    content from Ultimate-Guitar.com
                                    in an unauthorized application,
                                    which is prohibited.

                                    Please use an official Ultimate
                                    Guitar Tabs application for iPhone,
                                    iPad or Android to access legitimate
                                    chords, guitar, bass, and drum tabs
                                    from Ultimate-Guitar.com database.

                                    Type "ultimate guitar tabs" in Apple
                                    App Store's or Android Market's
                                    search to find the application.
Worth Fighting For
Judas Priest
Angel of Retribution - 2005 Epic

[note: I fixed the rythem part of the solo]
[note 2: I fixed the bridge]


INTRO

|Guitar 1 Glenn Tipton (distorted)
|
|----------------------------------------------------------|
|----------------------------------------------------------|
|--------------------0------0---------0--------------------|
|--------2---------2------0---------0-------7--------------|
|----0h2-----0-2-3------2---------2------/5----0h2---0-----|
|-0-----------------------------3------------------0---3-2-|
|
|Guitar 2 KK Downing (distorted)
|
|----------------------------------------------------------|
|----------------------------------------------------------|
|----------------------------------------------------------|
|----------------------------------------------------------|
|----------------------------------------------------------|
|----------------------------------------------------------|


|Guitar 1 (distorted)
|
|----------------------------------------------------------|
|----------------------------------------------------------|
|--------------------0------0---------0--------------------|
|--------2---------2------0---------0-------7--------------|
|----0h2-----0-2-3------2---------2------/5----0h2---0-----|
|-0-----------------------------3------------------0---3-2-|
|
|Guitar 2 (distorted)
| Em               Cadd9  G/B   G5        D5
|-0----------------3------3-----3---------2----------------|
|-0----------------3------3-----3---------3----------------|
|-0----------------0------0-----0---------2----------------|
|-2----------------x------0-----0---------0----------------|
|-2----------------3------2-----x--------------------------|
|-0-----------------------------3--------------------------|


|Guitar 1 (distorted)
|
|----------------------------------------------------------|
|----------------------------------------------------------|
|----------------------------------------------------------|
|-2--------------------------------------------------------|
|-2--------------------------------------------------------|
|-0--------------------------------------------------------|
|
|Guitar 2 (distorted)
|
|--------10--------10----------------10--------10----------|
|---12--------12----------------12--------12---------------|
|/9----9----9----9----9-7h9--/9----9----9----9----9-7h9----|
|----------------------------------------------------------|
|----------------------------------------------------------|
|----------------------------------------------------------|


VERSE


|Guitar 1 (clean)
|
|-0---------------------------0------------------0---------|
|-0---------------------------1------------------1---------|
|-0---------------------------2------------------2---------|
|-2---------------------------2------------------2---------|
|-2---------------------------0------------------0---------|
|-0--------------------------------------------------------|
|
|Guitar 2 (distorted)
|
|----------------------------------------------------------|
|----------------------------------------------------------|
|----------------------------------------------------------|
|-----------------------------2222222222222222222222222----|
|-222222222222222222222222222-0000000000000000000000000----|
|-000000000000000000000000000---------------------------3-2|
| PM......................... .........................
1:You said I could never find a way to ease your mind
2:I tried so hard to have you reach another side of me

|Guitar 1 (clean)
|
|-0---------------------------------0-------------|
|-0---------------------------------1-------------|
|-0---------------------------------2-------------|
|-2---------------------------------2-------------|
|-2---------------------------------0-------------|
|-0-----------------------------------------------|
|
|Guitar 2 (distorted)
|
|-------------------------------------------------|
|-------------------------------------------------|
|-------------------------------------------------|
|-----------------------------------2222222222----|
|-222222222222222222222222222222222-000000000-----|
|-000000000000000000000000000000000------------3-2|
| PM............................... ..........
  But where I go you wind up in the dust                      X2
  Instead you went to nowhere and forgot

CHORUS

|Guitar 1 (distorted)
|
|----------------------------------------------------------|
|----------------------------------------------------------|
|--------------------0------0---------0--------------------|
|--------2---------2------0---------0-------7--------------|
|----0h2-----0-2-3------2---------2------/5----0h2---0-----|
|-0-----------------------------3------------------0---3-2-|
|
|Guitar 2 (distorted)
|
|----------------------------------------------------------|
|----------------------------------------------------------|
|----------------------------------------------------------|
|----------------------------------------------------------|
|----------------------------------------------------------|
|----------------------------------------------------------|


|Guitar 1 (distorted)
|
|----------------------------------------------------------|
|----------------------------------------------------------|
|--------------------0------0---------0--------------------|
|--------2---------2------0---------0-------7--------------|
|----0h2-----0-2-3------2---------2------/5----0h2---0-----|
|-0-----------------------------3------------------0---3-2-|
|
|Guitar 2 (distorted)
| Em               Cadd9  G/B   G5        D5
|-0----------------3------3-----3---------2----------------|
|-0----------------3------3-----3---------3----------------|
|-0----------------0------0-----0---------2----------------|
|-2----------------x------0-----0---------0----------------|
|-2----------------3------2-----x--------------------------|
|-0-----------------------------3--------------------------|


|Guitar 1 (distorted)
|
|----------------------------------------------------------|
|----------------------------------------------------------|
|----------------------------------------------------------|
|-2--------------------------------------------------------|
|-2--------------------------------------------------------|
|-0--------------------------------------------------------|
|
|Guitar 2 (distorted)
|
|--------10--------10----------------10--------10----------|
|---12--------12----------------12--------12---------------|
|/9----9----9----9----9-7h9--/9----9----9----9----9-7h9----|
|----------------------------------------------------------|
|----------------------------------------------------------|
|----------------------------------------------------------|


VERSE


|Guitar 1 (clean)
|
|-0-----------------------------0--------------------0---------|
|-0-----------------------------1--------------------1---------|
|-0-----------------------------2--------------------2---------|
|-2-----------------------------2--------------------2---------|
|-2-----------------------------0--------------------0---------|
|-0------------------------------------------------------------|
|
|Guitar 2 (distorted)
|
|--------------------------------------------------------------|
|--------------------------------------------------------------|
|--------------------------------------------------------------|
|-------------------------------222222222222222222222222222----|
|-22222222222222222222222222222-000000000000000000000000000----|
|-00000000000000000000000000000-----------------------------3-2|
| PM........................... ...........................

1:Desert heat can wear ya down, but still I'm rollin' through
2:I am driven by your thirst, to quench myself of love

|Guitar 1 (clean)
|
|-0--------------------------------0---------------|
|-0--------------------------------1---------------|
|-0--------------------------------2---------------|
|-2--------------------------------2---------------|
|-2--------------------------------0---------------|
|-0------------------------------------------------|
|
|Guitar 2 (distorted)
|
|--------------------------------------------------|
|--------------------------------------------------|
|--------------------------------------------------|
|----------------------------------222222222222----|
|-22222222222222222222222222222222-000000000000----|
|-00000000000000000000000000000000--------------3-2|
| PM.............................. ............
  Did I see you're figure in the haze?            X2
  The sun beats on me for the price I pay


CHORUS

|Guitar 1 (distorted)
|
|----------------------------------------------------------|
|----------------------------------------------------------|
|--------------------0------0---------0--------------------|
|--------2---------2------0---------0-------7--------------|
|----0h2-----0-2-3------2---------2------/5----0h2---0-----|
|-0-----------------------------3------------------0---3-2-|
|
|Guitar 2 (distorted)
|
|----------------------------------------------------------|
|----------------------------------------------------------|
|----------------------------------------------------------|
|----------------------------------------------------------|
|----------------------------------------------------------|
|----------------------------------------------------------|


|Guitar 1 (distorted)
|
|----------------------------------------------------------|
|----------------------------------------------------------|
|--------------------0------0---------0--------------------|
|--------2---------2------0---------0-------7--------------|
|----0h2-----0-2-3------2---------2------/5----0h2---0-----|
|-0-----------------------------3------------------0---3-2-|
|
|Guitar 2 (distorted)
| Em               Cadd9  G/B   G5        D5
|-0----------------3------3-----3---------2----------------|
|-0----------------3------3-----3---------3----------------|
|-0----------------0------0-----0---------2----------------|
|-2----------------x------0-----0---------0----------------|
|-2----------------3------2-----x--------------------------|
|-0-----------------------------3--------------------------|


|Guitar 1 (distorted)
|
|----------------------------------------------------------|
|----------------------------------------------------------|
|----------------------------------------------------------|
|-2--------------------------------------------------------|
|-2--------------------------------------------------------|
|-0--------------------------------------------------------|
|
|Guitar 2 (distorted)
|
|--------10--------10----------------10--------10-----------|
|---12--------12----------------12--------12----------------|
|/9----9----9----9----9-7h9--/9----9----9----9----9-7-------|h9hold
|-----------------------------------------------------------|
|-----------------------------------------------------------|
|-----------------------------------------------------------|


BRIDGE


|Guitar 1 (distorted)
|
|----------------------------------------------------------|
|----------------------------------------------------------|
|----------------------------------------------------------|
|----2----5----2----5----4/5----2----5----2----5---0-2-----|
|----2----5----2----5----4/5----2----5----2----5---0-2-----|
|-00---00---00---00---00-----00---00---00---00---0---------|
| PM   ..   ..   ..   ..     ..   ..   ..   ..   .
|
|Guitar 2 (distorted)
|
|----------------------------------------------------------|
|----------------------------------------------------------|
|----------------------------------------------------------|
|----------------------------------------------------------|
|----------------------------------------------------------|
|----------------------------------------------------------|

|Guitar 1 (distorted)
|
|----------------------------------------------------------|
|----------------------------------------------------------|
|----------------------------------------------------------|
|----2----5----2----5----4/5----2----5----2----5---0-2-----|
|----2----5----2----5----4/5----2----5----2----5---0-2-----|
|-00---00---00---00---00-----00---00---00---00---0---------|
| PM   ..   ..   ..   ..     ..   ..   ..   ..   .
|
|Guitar 2 (distorted)
|
|-----------------------------------------------------------|
|-----------------------------------------------------------|
|----9----12----9---12--10/12---9----10---9----10--10-12----|
|----9----12----9---12--10/12---9----10---9----10--10-12----|
|-----------------------------------------------------------|
|/00---00---00---00---00-----00---00---00---00---0----------|
| PM   ..   ..   ..   ..     ..   ..   ..   ..   .


SOLO


|Guitar 1 (distorted)
|
|-------------------------7--------|
|---------7-8-8~---8--888---10-8-7-|
|-9--999---------------------------|
|-9--999---------------------------|
|----------------------------------|
|----------------------------------|
|
|
|Guitar 2 (distorted)
|
|----------------------------------|
|----------------------------------|
|-222222--55555-----------222------|
|-222222--55555----555555-222------|
|-000000--33333----555555-000------|
|------------------333333------3-2-|
| PM....  .....    ...... ...


|Guitar 1 (distorted)
|
|---------------------------------------------------|
|---------------------------------------------------|
|--------------555555555555555-------------44444444-|
|-222222222222-555555555555555--5555555555-44444444-|
|-222222222222-333333333333333--5555555555-22222222-|
|-000000000000------------------3333333333----------|
| PM.......... ...............  .......... ........
|
|Guitar 2 (distorted)
|
|---------------------------------10b11b10----12----|
|------------------------------------------12----12-|
|----0------------0---------------------------------|
|----2----------------------------------------------|
|--------0-2----3---2-3--0-2-0----------------------|
|-00---0-----0------------------3-------------------|


BRIDGE


|Guitar 1 (clean)
| C                  Am           Em
|-0------------------0------------0----|
|-1------------------1------------0----|
|-0------------------2------------0----|
|-2------------------2------------2----|
|-3------------------0------------2----|
|---------------------------------0----|
|
|
|Guitar 2 (clean)
| C                  Am           Em
|-0------------------0------------0----|
|-1------------------1------------0----|
|-0------------------2------------0----|
|-2------------------2------------2----|
|-3------------------0------------2----|
|---------------------------------0----|
|
 Night road leads me to a town of ghosts


|Guitar 1 (clean)
| G                   C         Asus2        E
|-3-------------------0-----------0----------0-------|
|-3-------------------1-----------0----------0-------|
|-0-------------------0-----------2----------0-------|
|-0-------------------2-----------2----------2-------|
|-2-------------------3-----------0----------2-------|
|-3------------------------------------------0-------|
|
|
|Guitar 2 (clean)
| G                   C         Asus2        E
|-3-------------------0-----------0----------0-------|
|-3-------------------1-----------0----------0-------|
|-0-------------------0-----------2----------0-------|
|-0-------------------2-----------2----------2-------|
|-2-------------------3-----------0----------2-------|
|-3------------------------------------------0-------|
|
  Beckoned by the glow of kerosone and tumbleweed

|Guitar 1 (clean)
|Cadd9    C       E
|-3-------0-------0------------------------|
|-3-------1-------0------------------------|
|-0-------2-------0------------------------|
|-2-------2-------2------------------------|
|-3-------0-------2------------------------|
|-----------------0------------------------|
|
|
|Guitar 2 (clean)
|Cadd9    C       E
|-3-------0-------0------------------------|
|-3-------1-------0------------------------|
|-0-------2-------0------------------------|
|-2-------2-------2------------------------|
|-3-------0-------2------------------------|
|-----------------0------------------------|
|
  They're calling out (They're calling out)

|Guitar 1 (clean)
|Cadd9 C       E
|-3----0-------0------------------------|
|-3----1-------0------------------------|
|-0----2-------0------------------------|
|-2----2-------2------------------------|
|-3----0-------2------------------------|
|--------------0------------------------|
|
|
|Guitar 2 (clean)
|Cadd9 C       E
|-3----0-------0------------------------|
|-3----1-------0------------------------|
|-0----2-------0------------------------|
|-2----2-------2------------------------|
|-3----0-------2------------------------|
|--------------0------------------------|
|
  Forever More        (Forever More)

CHORUS


|Guitar 1 (distorted)
|
|----------------------------------------------------------|
|----------------------------------------------------------|
|--------------------0------0---------0--------------------|
|--------2---------2------0---------0-------7--------------|
|----0h2-----0-2-3------2---------2------/5----0h2---0-----|
|-0-----------------------------3------------------0---3-2-|
|
|Guitar 2 (distorted)
| Em               Cadd9  G/B   G5        D5
|-0----------------3------3-----3---------2----------------|
|-0----------------3------3-----3---------3----------------|
|-0----------------0------0-----0---------2----------------|
|-2----------------x------0-----0---------0----------------|
|-2----------------3------2-----x--------------------------|
|-0-----------------------------3--------------------------| X4

OUTRO

|Guitar 1 (distorted)
|
|----------------------------------------------------------|
|----------------------------------------------------------|
|----------------------------------------------------------|
|----2----5----2----5----4/5----2----5----2----5---0-2-----|
|----2----5----2----5----4/5----2----5----2----5---0-2-----|
|-00---00---00---00---00-----00---00---00---00---0---------|
| PM   ..   ..   ..   ..     ..   ..   ..   ..   .
|
|Guitar 2 (distorted)
|
|----------------------------------------------------------|
|----------------------------------------------------------|
|----------------------------------------------------------|
|----------------------------------------------------------|
|----------------------------------------------------------|
|----------------------------------------------------------|


|Guitar 1 (distorted)
|                                                    E5
|----------------------------------------------------0-----|
|----------------------------------------------------0-----|
|----------------------------------------------------0-----|
|----2----5----2----5----4/5----2----5----2----5---0-2-----|
|----2----5----2----5----4/5----2----5----2----5---0-2-----|
|-00---00---00---00---00-----00---00---00---00---0---0-----|
| PM   ..   ..   ..   ..     ..   ..   ..   ..   .
|
|Guitar 2 (distorted)
|
|---------10--------10---------------10--------10---------|
|----12--------12---------------12--------12--------------|
|-/9----9----9----9----9-7h9-/9----9----9----9---9-7-9----|
|---------------------------------------------------------|
|---------------------------------------------------------|
|---------------------------------------------------------|


And thats it, any questions or comments go to allan_1701@hotmail.com
comments
print report bad tab
3 comments total.
0 reply
Iheartnirvana wrote on January 23 2008, 02:02 pm

I'm impressed, this is perfect!

0 reply
Jesstaa wrote on May 22 2009, 08:25 am

Not really,
|----------------------------------------------------------|
|----------------------------------------------------------|
|----------------------------------------------------------|
|----2----5----2----5----4/5----2----5----2----5---0-2-----|
|----2----5----2----5----4/5----2----5----2----5---0-2-----|
|-00---00---00---00---00-----00---00---00---00---0---------|
| PM .. .. .. .. .. .. .. .. .

Should be

|----------------------------------------------------------|
|----------------------------------------------------------|
|----------------------------------------------------------|
|----2----5----2----5----0-2----2----5----2----5---0-2-----|
|----2----5----2----5----0-2----2----5----2----5---0-2-----|
|-00---00---00---00---00-----00---00---00---00---0---------|
| PM .. .. .. .. .. .. .. .. .

Apart from that it looks fairly good.

0 reply
kindziukxxx wrote on November 5 2009, 04:20 pm

great tab, i think that only mistake is in the part what Jesstaa find :)

I want to post or [tab]
guest
You may want to rate the tab now too:
select rating
Please do not post tabs as comments. Select "correction" instead!