Oops, an error
Loading. Please wait.

Hazelton Tab

ver3
ver3

Whole song

More versions @911Tabs.com
937 views 15 this week
no commentswrite comment
1 2 3 4 5
excellent!
x 1
add to favorites launch autoscroll
font size
0
reset
Autoscroll
+/-
esc
set tempo
stop
Contributor
Difficulty
intermediate
WARNING: You are trying to view
                                    content from Ultimate-Guitar.com
                                    in an unauthorized application,
                                    which is prohibited.

                                    Please use an official Ultimate
                                    Guitar Tabs application for iPhone,
                                    iPad or Android to access legitimate
                                    chords, guitar, bass, and drum tabs
                                    from Ultimate-Guitar.com database.

                                    Type "ultimate guitar tabs" in Apple
                                    App Store's or Android Market's
                                    search to find the application.
------------------------------------------------------------------------------------------------
                                             Hazelton - Justin Vernon
------------------------------------------------------------------------------------------------
Tabbed by:  JustinS.02
E-mail:  Justin.sales02@gmail.com (Be cool, no spam please.)


This is my first tab, but I'm almost positive it's correct.  Hazelton is a pretty 
simple, beautiful song,
but I haven't seen it tabbed quite correctly anywhere else.  If I do make a mistake, 
feel free to send me
a message and I'll adjust the tab accordingly.  This tab should follow the recording 
exactly, but
I'll also post a simpler version at the end of this tab that will follow just the main 
melody, so if you're
struggling with the recorded version, give it a look.  The recording of this song
uses at least two guitars that
bounce between holding the melody and the harmony, but it's clear that some
harmonies are meant to be played
louder than the actual melody, so I've tabbed the most audible parts up in the
recorded version.  All feedback
and rates are appreciated.  Thank you, and enjoy.  :)


-Standard Tuning.
-Capo on the first fret.
-Tab is relative to Capo.
-"<" means added emphasis on the note.


The whole song revolves around the A chord.  Here are the five variations he uses.
(I don't actually know the chord names, so I'm just notating them as A1, A2, A3, A4, and A5.)

   A1      A2      A3      A4      A5

e|-0-----|-0-----|-0-----|-0-----|-0-----|
B|-2-----|-2-----|-2-----|-2-----|-2-----|
G|-2-----|-2-----|-2-----|-2-----|-2-----|
D|-2-----|-0-----|-0-----|-2-----|-0-----|
A|-0-----|-2-----|-0-----|-0-----|-0-----|
E|-X-----|-X-----|-2-----|-0-----|-0-----|


Here's a piece of advice.  Although I know it's not the best technique, this is
how you should finger all of these chords:

   A1      A2      A3      A4      A5

e|-------|-------|-------|-------|-------|
B|-3rd---|-3rd---|-3rd---|-3rd---|-3rd---|                Index = 1st
G|-2nd---|-2nd---|-2nd---|-2nd---|-2nd---|     Where      Middle = 2nd,
D|-1st---|-------|-------|-1st---|-------|                Ring = 3rd, and
A|-------|-1st---|-------|-------|-------|                Pinky = 4th finger
E|-X-----|-X-----|-2nd---|-------|-------|


I know it's not technically the "correct" way of fingering them, but it allows you to 
root your middle finger
on the G string throughout the entire song, and makes it possible to finger a 3 on the B 
string with your
pinky finger without dramatically changing your finger position. It's much easier than 
switching your
fingering every two seconds.  Just be careful you aren't muting the e string with your palm.


-------------------------------------------------------------------------------------------------
                                             Hazelton (As recorded)


The intro is played differently than the rest of the song.  You'll only use this once, 
at the very beginning.
The strumming pattern for most of the song is outlined in bars three and four, repeat it 
for every similar bar.




Intro:
                                  <   <     <   < <    <     <   <  (sim.)
e|--5-0---5-0--|------------0-0--|----------0----|-----------0----|
B|-------------|2-----2-2--------|----2---------2|-----2---------2|
G|2-----2-----2|2---2-----------2|--2---2-----2--|---2---2-----2--|
D|-------------|0-0-------0------|--------0------|---------0------|
A|-------------|-----------------|---------------|----------------|
E|-------------|-----------------|2--------------|2---------------|

Verse/Chorus Part 1:

e|----------0----|----------0----|----------0----|----------0----|
B|----2---------2|----2---------2|----2---------2|----2---------2|
G|--2---2-----2--|--2---2-----2--|--2---2-----2--|--2---2-----2--| (2x)
D|--------2------|--------0------|--------0------|--------0------|
A|0--------------|2--------------|---------------|---------------|
E|---------------|---------------|2--------------|2--------------|

                  <   <   <   <                   <   <   <   <
e|----------0----|---------------|----------0----|---------------|
B|----2---------2|----2-------2--|----2---------2|----2-------2--|
G|--2---2-----2--|--2---2---2---2|--2---2-----2--|--2---2---2---2|
D|--------2------|---------------|--------0------|---------------|
A|0--------------|2-------2------|---------------|---------------|
E|---------------|---------------|2--------------|2-------2------|


e|----------0----|----------0----|----------0----|----------0----|
B|----2---------2|----2---------2|----2---------2|----2---------2|
G|--2---2-----2--|--2---2-----2--|--2---2-----2--|--2---2-----2--| (2x)
D|--------2------|--------0------|--------0------|--------0------|
A|0--------------|2--------------|---------------|---------------|
E|---------------|---------------|2--------------|2--------------|


e|----------0----|----------0----|----------0----|----------0----|
B|----2---------2|----2---------2|----2---------2|----2---------2|
G|--2---2-----2--|--2---2-----2--|--2---2-----2--|--2---2-----2--|
D|--------2------|--------0------|--------0------|--------0------|
A|0--------------|2--------------|---------------|---------------|
E|---------------|---------------|2--------------|2--------------|

Settle up, you're callin' up, the pain,

e|----------0----|----------0----|----------0----|----------0----|
B|----2---------2|----2---------2|----2---------2|----2---------2|
G|--2---2-----2--|--2---2-----2--|--2---2-----2--|--2---2-----2--|
D|--------2------|--------0------|--------0------|--------0------|
A|0--------------|2--------------|---------------|---------------|
E|---------------|---------------|2--------------|2--------------|

Sittin' dead, the sinker and the string,


Bridge Part 1:
                                                      <         <
e|----------0----|---------------|---------------|---------------|
B|----2---------2|----2---3-2---2|----2---3-2---2|----3---3-2---3|
G|--2---2-----2--|--2---------2--|--2---------2--|--2-2-------2-2|
D|--------2------|------0--------|------0--------|------0--------|
A|---------------|---------------|---------------|---------------|
E|0--------------|0--------------|2--------------|2--------------|

You came,    you saw,       you sa-awed her brain,

      <     <         <     <         <     <         <   < <   <
e|---------------|---------------|---------------|---------------|
B|----2-----2---2|----2-----2----|----2-----2----|----2---2-2---2|
G|--2-2---2-2-2--|--2-----2-----2|--2-----2-----2|--2---2-----2--|
D|------2--------|---------------|---------------|---------------|
A|---------------|---------------|---------------|---------------|
E|0--------------|0-----0-----0--|2-----2-----2--|2--------------|

Cut out all the parts that held your stain,


Chorus Part 2:

e|----------0----|----------0----|---------------|---------------|
B|----2---------2|----2---------2|----2---3-2---2|----2---3-2---2|
G|--2---2-----2--|--2---2-----2--|--2---------2--|--2---------2--|
D|--------2------|--------0------|------0--------|------0--------|
A|0--------------|2--------------|---------------|---------------|
E|---------------|---------------|2--------------|2--------------|

Sittin' clad, your feelin' wild, to blame,

                                      <     <         <     <
e|----------0----|----------0----|---------------|---------------|
B|----2---------2|----2---------2|----3-----2----|----3-----2----|
G|--2---2-----2--|--2---2-----2--|----2-----2----|----2-----2----|
D|--------2------|--------0------|--0-----0-----0|--0-----0-----0|
A|0--------------|2--------------|---------------|---------------|
E|---------------|---------------|2-----2-----2--|2-----2-----2--|

She's cryin' as your climbin' down your claims,

                                      <     <
e|----------0----|----------0----|---------------|----------0----|
B|----2---------2|----2---------2|----2-----2----|----2---------2|
G|--2---2-----2--|--2---2-----2--|--2---2-----2--|--2---2-----2--|
D|--------2------|--------0------|---------------|--------0------|
A|0--------------|2--------------|---------------|---------------|
E|---------------|---------------|2-------2-----2|2--------------|

Sittin' up, your countin' up, your name,


e|----------0----|----------0----|----------0----|----------0----|
B|----2---------2|----2---------2|----2---------2|----2---------2|
G|--2---2-----2--|--2---2-----2--|--2---2-----2--|--2---2-----2--|
D|--------2------|--------0------|--------0------|--------0------|
A|0--------------|2--------------|---------------|---------------|
E|---------------|---------------|2--------------|2--------------|

Seen enough,  to bend him off, the frame,


Bridge Part 2:
                      < <   < <       <     <         <     <
e|----------0----|---------------|---------------|---------------|
B|----2-----2---2|----3-2---3-2--|----2-----2----|----2-----2----|
G|--2---2-----2--|--2------------|--2---2-----2--|--2---2-----2--|
D|--------2------|---------------|---------------|---------------|
A|---------------|---------------|---------------|---------------|
E|0--------------|0-------0-----0|2-------2-----2|2-------2-----2|

You came,    You saw,        you sa-awed her brain,

                      <   < <   <
e|---------------|---------------|---------------|---------------|
B|----2---3-2---2|----3---3-2---3|----2---3-2---2|----2---3-2---2|
G|--2---------2--|--2------------|--2---------2--|--2---------2--|
D|------2--------|------0-----0--|------0--------|------0--------|
A|---------------|---------------|---------------|---------------|
E|0--------------|0--------------|2--------------|2--------------|

You cut out all the parts that held your stain,


e|---------------|---------------|---------------|---------------|
B|----2---3-2---2|----2---3-2---2|----2---3-2---2|----2---3-2---2|
G|--2---------2--|--2---------2--|--2---------2--|--2---------2--|
D|------2--------|------0--------|------0--------|------0--------|
A|---------------|---------------|---------------|---------------|
E|0--------------|0--------------|2--------------|2--------------|

You clipped, you clawed,      to no-o applause,


e|---------------|---------------|---------------|---------------|
B|----2---3-2---2|----2---3-2---2|----2---3-2---3|2---3-2---3-2--|
G|--2---------2--|--2---------2--|--2------------|---------------|
D|------2--------|------0--------|------0-----0--|--0-----0-----0|
A|---------------|---------------|---------------|---------------|
E|0--------------|0--------------|2--------------|---------------|

You lost the will and bought the dying cause,



Outro:

e|----------0----|----------0----|----------0----|----------0----|
B|----2---------2|----2---------2|----2---------2|----2---------2|
G|--2---2-----2--|--2---2-----2--|--2---2-----2--|--2---2-----2--|
D|--------2------|--------0------|--------0------|--------0------|
A|0--------------|2--------------|---------------|---------------|
E|---------------|---------------|2--------------|2--------------|

          So     try       to be          some-   body,


e|----------0----|----------0----|---------------|---------------|
B|----2---------2|----2---------2|----2---3-2---2|----2-----3-2--|
G|--2---2-----2--|--2---2-----2--|--2---------2--|--2---2-------2|
D|--------2------|--------0------|------0--------|--------0------|
A|0--------------|2--------------|---------------|---------------|
E|---------------|---------------|2--------------|2--------------|

          So     try       to feel        some-   body,


e|----------0----|---------------|----------0----|---------------|
B|----2---------2|----2---3-2---2|----2---------2|----2-----3-2--|
G|--2---2-----2--|--2---------2--|--2---2-----2--|--2---2-------2|
D|--------2------|------0--------|--------0------|--------0------|
A|0--------------|2--------------|---------------|---------------|
E|---------------|---------------|2--------------|2--------------|

          So     try       to be          some-   body,


e|----------0----|----------0----|---------------|---------------|
B|----2---------2|----2---------2|----2---3-2---2|----2-----3-2--|
G|--2---2-----2--|--2---2-----2--|--2---------2--|--2---2-------2|
D|--------2------|--------0------|------0--------|--------0------|
A|0--------------|2--------------|---------------|---------------|
E|---------------|---------------|2--------------|2--------------|

         So      hard      to be          some-   body,
                                                              (But,)


e|----------0----|----------0----|---------------|---------------|
B|----2---------2|----2---------2|----2---3-2---2|----2---3-2---2|
G|--2---2-----2--|--2---2-----2--|--2---------2--|--2---------2--|
D|--------2------|--------0------|------0--------|------0--------|
A|0--------------|2--------------|---------------|---------------|
E|---------------|---------------|2--------------|2--------------|

          So     try      to be           some-   body
          (You wreck it then you run,           You wreck it then you run,)


e|----------0----|----------0----|----------0----|----------0----|
B|----2---------2|----2---------2|----2---------2|----2---------2|
G|--2---2-----2--|--2---2-----2--|--2---2-----2--|--2---2-----2--|
D|--------2------|--------0------|--------0------|--------0------|
A|0--------------|2--------------|---------------|---------------|
E|---------------|---------------|2--------------|2--------------|

          So     try      to feel         some-   body
          (You wreck it then you run,           You wreck it then you run,)




e|----------0----|----------0----|----------0----|----------0----|
B|----2---------2|----2---------2|----2---------2|----2---------2|
G|--2---2-----2--|--2---2-----2--|--2---2-----2--|--2---2-----2--|
D|--------2------|--------0------|--------0------|--------0------|
A|0--------------|2--------------|---------------|---------------|
E|---------------|---------------|2--------------|2--------------|

         So      try     to leave         some-   body
         (You wreck it then you run,            You wreck it then you run,)


                                                         (Molto Rit.)
e|----------0----|----------0----|---------------|---------------|
B|----2---------2|----2---------2|----2---3-2---2|----2-----3-2--|
G|--2---2-----2--|--2---2-----2--|--2---------2--|--2---2-------2|
D|--------2------|--------0------|------0--------|--------0------|
A|0--------------|2--------------|---------------|---------------|
E|---------------|---------------|2--------------|2--------------|

         So      hard     to be           some-   body
         (You wreck it then you run,            You wreck it then you run,)


Just sort of trail off in the last bar.  Slow down and make sure those strings ring.


------------------------------------------------------------------------------------------------
                                          Hazelton - Easier Version

This is the main melody throughout the song, it alternates between these two ideas.


Idea 1:
  A1              A2              A3               A3
e|----------0----|----------0----|----------0----|----------0----|
B|----2---------2|----2---------2|----2---------2|----2---------2|
G|--2---2-----2--|--2---2-----2--|--2---2-----2--|--2---2-----2--|
D|--------2------|--------0------|--------0------|--------0------|
A|0--------------|2--------------|---------------|---------------|
E|---------------|---------------|2--------------|2--------------|

Idea 2:
  A4              A5              A3              A3
e|----------0----|----------0----|----------0----|----------0----|
B|----2---------2|----2---------2|----2---------2|----2---------2|
G|--2---2-----2--|--2---2-----2--|--2---2-----2--|--2---2-----2--|
D|--------2------|--------0------|--------0------|--------0------|
A|---------------|---------------|---------------|---------------|
E|0--------------|0--------------|2--------------|2--------------|


Intro/verse 1: (Idea 1)

A1 A2 A3 A3 (6x)


Chorus Part 1: (Idea 1)

A1                A2              A3              A3
Settle up, you're callin' up, the pain,
Sittin' dead, the sinker and the string,


Bridge Part 1: (Idea 2)

A4                A5              A3              A3
You came,    you saw,       you sa-awed her brain,
Cut out all the parts that held your stain,


Chorus Part 1: (Idea 1)

A1                A2              A3              A3
Sittin' clad, your feelin' wild, to blame,
She's cryin' as your climbin' down your claims,
Sittin' up, your countin' up, your name,
Seen enough,  to bend him off, the frame,


Bridge Part 2: (Idea 2)

A4                A5              A3              A3
You came,    you saw,       you sa-awed her brain,
Cut out all the parts that held your stain,
You clipped, you clawed,      to no-o applause,
You lost the will and bought the dying cause

Outro: (Idea 1)
A1                A2              A3              A3
          So     try       to be        some-     body,
          So     try       to feel      some-     body,
          So     try       to be        some-     body,
          So     hard      to be        some-     body,
(*But,    You wreck it then you run,          You wreck it then you run,)
          So     try       to be        some-     body
          So     try       to feel      some-     body
          So     try       to leave     some-     body
          So     hard      to be        some-     body

*Repeat the part in parenthesis every line until the end of the song (The last four lines).

I've done my best to tab out the timing, but for the best results just listen to the 
song and
figure out the timing yourself.  Hope this helped!  Once again, feedback and rates 
are appreciated.

Thanks guys.  :)
comments
We did not receive enough feedback on this tab! Please rate:
print report bad tab
1 2 3 4 5
I want to post or [tab]
guest
You may want to rate the tab now too:
select rating
Please do not post tabs as comments. Select "correction" instead!