Oops, an error
Loading. Please wait.

Only Human Acoustic Tab

by K
19,424 views 64 this week
no commentswrite comment
1 2 3 4 5
excellent!
x 3
add to favorites launch autoscroll
font size
0
reset
Autoscroll
+/-
esc
set tempo
stop
Contributor
WARNING: You are trying to view
                                    content from Ultimate-Guitar.com
                                    in an unauthorized application,
                                    which is prohibited.

                                    Please use an official Ultimate
                                    Guitar Tabs application for iPhone,
                                    iPad or Android to access legitimate
                                    chords, guitar, bass, and drum tabs
                                    from Ultimate-Guitar.com database.

                                    Type "ultimate guitar tabs" in Apple
                                    App Store's or Android Market's
                                    search to find the application.
http://www.k-official.com/

From the youtube video: Only Human - K (Guitar Cover)



Intro:
e|----12---------12-----10-------10--------10----8-----8/10-------|
B|----------10-------------------------8--------------------------|
G|----------------------0-----------------------------------------|
D|-----0-----------------------------------------7----------------|
A|-------------------------------7--------------------------------|
E|----------------------------------------------------------------|


e|---12--------12----10----8-----7--------15------|
B|---------10--------------------------8----------|
G|-------------------0-----------------5----------|
D|---0--------------------------------------------|
A|-------------------------------0----------------|
E|------------------------------------------------|



1st Verse:

e|---------------3----0------------0---0h1--0-----------------------------|
B|-------0--1------------------1------------------3---1---3----------3----|
G|---2---------------------2---------------------------------------0----0-|
D|--------------------3-----------------------------------------2---------|
A|------------------------------------------------------------------------|
E|------------------------------------------------------------------------|

e|------------3----0-----------0---1--0------3--0----------------------3-|
B|--------1----------------1-------------3--------------3----------0-1---|
G|-0h2----------------2------------0-----------------0-----0---0h2-------|
D|-----------------0-------------------------------2---------------------|
A|-----------------------------------------------------------------------|
E|-----------------------------------------------------------------------|

e|------0------------0---0h1--0---------------------------------------|
B|---------------1------------------3---1---3----------3--------------|
G|-----------2---------------------------------------0-------0--------|
D|------3-----------------------------------------2--------------2----|
A|--------------------------------------------------------------------|
E|--------------------------------------------------------------------|

e|---------------------------------------------------------------------|
B|--1--0--1-------1---0---1-----3-------1---1----------------1---------|
G|--------------------------0------2----------------------0------------|
D|-------------0----------------------------------------2--------------|
A|---------------------------------------------------3-----------------|
E|---------------------------------------------------------------------|

e|-----0--------------0----------------------------------------------|
B|-----------------------------3------0--------------3------1--------|
G|--0-----2-----------2--------0---------2-----------0-----------2---|
D|-----------------3------------------------------2-----2-----2------|
A|----------------------------------------------------------0--------|
E|------------1----------------3---------------0---------------------|

e|---------0-----------------------0-----------------------------|
B|-------------------3-----1--3-------------------1--1------0----|
G|--2------2---------0-------------------------2-----------------|
D|------3------------------------------------2----------2--------|
A|----------------------------------------0----------------------|
E|--1----------------3-------------------------------3-----------|

e|------------0------------------------1---0-----------------|
B|-----------------3---0-----------------------3--1--0-------|
G|----2-------2----0------2--------1-------------------------|
D|--------3---------------------2----------------------------|
A|-----------------------------------------0-----------------|
E|----1------------3----------0------------------------------|

e|-------------0-------------------------------------------------------|
B|--1--------------3---1---------------1--1---------------1-------1----|
G|--2-----------------------0------2-------------------0--------0------|
D|--0----0------------------------------------------2--------2---------|
A|------------------------------------------------3--------------------|
E|---------------------------------------------------------------------|



Chorus:

e|-3---3---------3-----1--------1---0----------0-------------------|
B|-----1---------------0--------0-----3-----3----------1----1---3--|
G|-----2------2--------0--------0-----------0--------0------0------|
D|----------3--------------0----------------2------2-----2--2------|
A|------------------------------------------3----------------------|
E|-----1---------------3-------------------------------------------|

e|--0--------0--0h1---0----------------3----0-----------------3-----|
B|----------------------------3---------------------1-1----1--------|
G|-----------2--------------------5--------------2------------------|
D|------3--------------------------------------2---------2----------|
A|------------------------------------------0-----------------------|
E|--1-----------------3-------4-----------------------3----3--------|


e|--3--------3---3---4-------0----7---7-------7--5-7--8-------|
B|--1--------1---------------0--------5-------5---------------|
G|--2--------2------------1-----------5----5--5---------------|
D|-------3----------------------------------------------------|
A|------------------------------------0-----------------------|
E|--1----------------0----------------------------------------|


e|--0-----------------0------------------------------------------------|
B|-----3---1-------------3--1---------------1-1-------------1----------|
G|----------------2-----------------------2---------------0------------|
D|-------------0----------------------------------------2--------------|
A|----------------------------------------------------3---------3------|
E|----------------------------------3----------------------------------|


e|--5--7--8--7-----------------------3----------------------------|
B|--------------8\3--------------3---3----------------------------|
G|----------------------------0------0----------------------------|
D|--------0----------------0---------0----------------------------|
A|-----------------------------------x----------------------------|
E|----------------------3------------3----------------------------|


2nd verse:

e|---------------3---0------------0---0h1--0------------------------|
B|-------0--1---------------------------------3---1---3---------3---|
G|---2-----------------------2-------------------------------0------|
D|-----------------------3---------------------------------2--------|
A|------------------------------------------------------------------|
E|----------3--------1-----------------------------------0----------|

e|----------------3----0-----------0----1--0------3--0----------------3-|
B|------0---1------------------1----------------3----------------0--1---|
G|---2--------------------2-------------0-------------------2--2--------|
D|---------------------0----------------------------------2-------------|
A|------------------------------------------------------0---------------|
E|----------------------------------------------------------------------|

e|------0------------0---0h1--0---------------------------------------|
B|----------------------------------3---1---3--------0--1----1---0----|
G|--------------2----------------------------------0----2----2--------|
D|-----------3-----------------------------------2------2--2----------|
A|------------------------------------------------------0-------------|
E|------1--------------------------------------0----------------------|

e|-------------------------------------------------0-------|
B|---1------1---0--1---3----1--1---------1-----------------|
G|---2------2------0------2------------0--------0------0---|
D|---0--0---0------0-----------------2--------2------------|
A|---------------------------------3-----------------------|
E|-----------------3---------------------------------------|

e|---------------------------0----------------------------------------|
B|---------------------------------3---0-------------3---1---0--------|
G|-----------------------2---------0------2---0----0-----0------2--0--|
D|--------------------3--------------------------2-------2------------|
A|-------------------------------------------------------0------------|
E|---------------1----------------3-----------0-----------------------|

e|------------0-------------------0----------------------------------|
B|-------------------3---1--3-----------------1-------------1--------|
G|---------2-------------------------------2-------------0-----------|
D|------3-------------------------------2--------2----2--------2-----|
A|-----------------------------------0-------------------------------|
E|--1----------------3-----------------------------3-----------------|

e|-------------0--------------------------------1---0------------------|
B|---------------------3---0------------------------1-----3---1--0-----|
G|-------------2-------0-------2-------------1------0------------------|
D|---------3--------0----------------------2---------------------------|
A|--------------------------------------------------0------------------|
E|-----1---------------3-------------0---------------------------------|

e|----------------------------------------------------------------|
B|--1--------1---------1-------1---0-----1---------1-------1------|
G|--2--------2---------0-------0---0-----0-------0------0---------|
D|--0----0---0---0-----0--0----0---0-----2----2-------2-----------|
A|---------------------------------------3------------------------|
E|----------------------3-----------------------------------------|


Before Bridge:
e|--0-----------------0-------------------------------------------------|
B|-----3---1-------------3--1----------------0-1-----------1--------1h3-|
G|----------------2-----------------------2-------------0---------------|
D|-------------0-------------------------------------2------------2-----|
A|-------------------------------------------------3-----------3--------|
E|----------------------------------3-----------------------------------|

Bridge:

e|--0-------0---------------------------------------------------|
B|----------------3-------3-----3------------1-----------1h3----|
G|--2-------2-----0----0----0---0-------0----2-------2----------|
D|-----3-------------0----------2----2-------2---2--------------|
A|-------------------------------------------0------------------|
E|--1------------3--------------0-------------------------------|

e|--0--------0--------3---0---------------------------------------|
B|---------------3-------------------------1--------------1h3-----|
G|--2--------2---0---------------------2------------------0-------|
D|------3---------------------------2-----------2------2----------|
A|--------------------------------0-------------------------------|
E|--1------------3----------------------------------3-------------|

e|--0-------0--------------------------------------------------------|
B|-----------------3---------1p01------3-------3-----1-------1p0-----|
G|--2-------2------0------0------------0-------0-----2-----2---------|
D|-----3---------------0--------------------2--------2---2-----------|
A|---------------------------------------------------0---------------|
E|--1--------------3--------------------0----------------------------|

e|---------------------------------------------------------------------|
B|---1----------1---------1p0----1-----0-------1------3------------2---|
G|---2------2----------2---------0-----0-------0------0----------------|
D|---3---3----------3----------------0-----0-------0-------------------|
A|---------------------------------------------------------------------|
E|---1---------------------------3------3------3------3----------------|

Chorus...

End of chorus:
e|--0-----------------0--------------------------------------------|
B|-----3---1-------------3--1-----1----------1-1----------1--------|
G|----------------2---------------0-----2--------------0-------0---|
D|-------------0-------------------------------------2------2------|
A|-------------------------------------------------3---------------|
E|--------------------------------3--------------------------------|

e|--0-----------------0-------------------------------------|
B|-----3---1-------------3--1---------------1-1-------------|
G|-------------------------------0-------2------------------|
D|-------------0--------------------------------------------|
A|----------------------------------------------------------|
E|----------------------------------------------------------|
comments
We did not receive enough feedback on this tab! Please rate:
1 2 3 4 5
I want to post or [tab]
guest
You may want to rate the tab now too:
select rating
Please do not post tabs as comments. Select "correction" instead!