Oops, an error
Loading. Please wait.

Addicted To Drugs Tab

978 views 1 this week
no commentswrite comment
1 2 3 4 5
accurate
x 1
Autoscroll
+/-
esc
set tempo
stop
Difficulty
novice
NEW! There's an official Ultimate Guitar app which is ideal
for learning songs when you're away from computer. Get the app
WARNING: You are trying to view
                                    content from Ultimate-Guitar.com
                                    in an unauthorized application,
                                    which is prohibited.

                                    Please use an official Ultimate
                                    Guitar Tabs application for iPhone,
                                    iPad or Android to access legitimate
                                    chords, guitar, bass, and drum tabs
                                    from Ultimate-Guitar.com database.

                                    Type "ultimate guitar tabs" in Apple
                                    App Store's or Android Market's
                                    search to find the application.
I grabbed GhostInADitch chords tab and completed a little bit.


e -------------------------------------------------------------------|
B -------------------------------------------------------------------|
G -------------------------------------------------------------------|
D -----------------------------Repeat(2x)----------------------------|
A -------------------------------------------------------------------|
E -6--6--6--9-6-3-2-2--0-3-0-----------------------------------------|

e -------------------------------------------------------------------|
B -------------------------------------------------------------------|
G -------------------------------------------------------------------|
D -------------------------------------------------------------------|
A -------------------------------------------------------------------|
E -6--6--6--9-6-3-2-2--0-2-0-1-1-1--0-2-0-1-1-1----------------------|

Now for the verse there's just a few chords:

A                        F#m     A                      F#m
Getting married in the morning, its hardly peaches and cream

A                F#m           F                    A
We haven't got a lot in common, except the daily routine

A                  F#m    A                     F#m
Nothing on the television, just the dust on the screen

A                     F#m    F                   A
So come on lets get together, why dont we join a team?

Chorus:

A                                   E
You might as well face it you're addicted to drugs

F#m                              D
You might as well face it you're addicted


During Chorus:

e -------------------------------------------------------------------|
B -------------------------------------------------------------------|
G -------------------------------------------------------------------|
D ---------------------------------------5--7--8---------------------|
A ------------------------5-----5--7---------------------------------|
E -<pick slide>-0----5/7-----7---------------------------------------|
comments
We did not receive enough feedback on this tab! Please rate:
print report bad tab
1 2 3 4 5
I want to post or [tab]
guest
You may want to rate the tab now too:
select rating
Please do not post tabs as comments. Select "correction" instead!