Oops, an error
Loading. Please wait.

Employment Tab

4,322 views 3 this week
2 commentsread comments
1 2 3 4 5
excellent!
x 3
add to favorites launch autoscroll
font size
0
reset
Autoscroll
+/-
esc
set tempo
stop
Contributor
Tabbers playing skills
intermediate +
WARNING: You are trying to view
                                    content from Ultimate-Guitar.com
                                    in an unauthorized application,
                                    which is prohibited.

                                    Please use an official Ultimate
                                    Guitar Tabs application for iPhone,
                                    iPad or Android to access legitimate
                                    chords, guitar, bass, and drum tabs
                                    from Ultimate-Guitar.com database.

                                    Type "ultimate guitar tabs" in Apple
                                    App Store's or Android Market's
                                    search to find the application.
KAISER CHIEFS - EMPLOYMENT

First off, i did not write these tabs, i am just putting them together as an album tab 
the convienence of having it all in one place. I give full credit to the original tabbers.

1. Everyday I Love You Less And Less - tabbed by Tadeusz Pik
2. I Predict A Riot - tabbed by Kevin Ryan (LuckyJim)
3. Modern Way - tabbed by Tadeusz Pik
4. Na Na Na Na Naa - tabbed by Kevin Ryan (LuckyJim)
5. You Can Have It All - tabbed by CAPTAINBEEFHEAR
6. Oh My God - tabbed by peterlowes
7. Born To Be A Dancer - tabbed by Kevin Ryan (LuckyJim)
8. Saturday Night - tabbed by Kevin Ryan (LuckyJim)
9. What Did I Ever Give You? - tabbed by mattant
10. Time Honoured Tradition - tabbed by fentlegend@hotmail.com
11. Caroline, Yes - tabbed by Gaz_m2k5
12. Team Mate - no tab as it's only piano.


********************************************
1. Everyday I Love You Less And Less
********************************************

Transcripted by Tadeusz Pik      teddypeak@wp.pl

Intro:
   F#
E|------------------------------------------|
B|------------------------------------------|
G|-------------------11---------------------|
D|------------------------11---9---7--------|
A|-9-9-9-9-9-9-9-9-9----9----9---9---9...---|
E|------------------------------------------|

F#
Everyday I love you less and less
It's clear to see that you've become obsessed
I've got to get this message to the press
That everyday I love you less and less

F#
And everyday I love you less and less
I've got to get this feeling off my chest
The doctor says all I need's pills and rest
Since everyday I love you less and less and less and less

  G
  I know, I feel it in my bones
  I'm sick, I'm tired of staying in control
  F#
  Oh yes, I feel, my hands upon a wheel,
  I've got, to know that not too much is real
  G
  Oh yes, I'm stressed, I'm sorry I digressed
  Impressed, you dressed to SOS

         F#  E                 A        B
     And oooooh and my parents love me
     Oooooh and my girlfriend loves me
     Oooooh

Everyday I love you less and less
I can't believe once you and me did sex
It makes me sick to think of you undressed
Since everyday I love you less and less

And everyday I love you less and less
You're turning into something I detest
And everybody says that you're a mess
Since everyday I love you less and less and less and less

  I know, I feel it in my bones
  I'm sick, I'm tired of staying in control
  Oh yes, I feel, direct upon a wheel
  I've got, to know that not too much is real
  Oh yes, I'm stressed, I'm sorry I digressed
  Impressed, you dressed to SOS

     And oooooh and my parents love me
     Oooooh and my girlfriend loves me
     Oooooh they keep photos of me
     Oooooh that's enough love for me
     Oooooh

E|----------------------------------------------------------|
B|--------9h10p9h10p9---------------------------------------|
G|-8-9h11-------------11-9-11--8h9p8h9p8--------------------|
D|---------------------------------------11-9-11--9-9\11-11-|
A|----------------------------------------------------------|
E|----------------------------------------------------------|

E|----------------------------------------------------------------|
B|--------9h10p9h10p9---------------------------------------------|
G|-8-9h11-------------11-9-11--8h9p8h9p8---------9h11p9-8---------|
D|---------------------------------------11-9-11----------11-9-11-|
A|----------------------------------------------------------------|
E|----------------------------------------------------------------|


     And oooooh and my parents love me
     Oooooh and my girlfriend loves me
     Oooooh they keep photos of me
     Oooooh that's enough love for me
     Oooooh


********************************************
2. I Predict A Riot
********************************************
Tabbed by Kevin Ryan (barbarico@gmail.com)


Intro
-----

E [-------------------------------------------]
B [-------------------------------------------]
G [-------------------------------------------]
D [-----------------6-6p5---5s3---3s1---1p0---]
A [-3--/6-5-3--/6-5---------------------------]
E [-------------------------------------------]


Verse
-----

E [-----------------]
B [-----------------]
G [-----------------]
D [-----------------]
A [-3-----1----/8---]
E [-----------------]


Bridge
------

  (---------repeat---------------------------------------------------------]
E [------------------------------------------------------------------------]
B [------------------------------------------------------------------------]
G [------------------------------------------------------------------------]
D [------------------------------------------------------------------------]
A [-3---3-2----2-1---1-----------------------------------------------------]
E [--------------------1---1-1---1-1---1--1--1---1---1-1---1-1---1--1--1---]


Chorus
------

E [-4---4-4---4-4---------------4---4-4---4-4---4--4--4-]
B [-4---4-4---4-4---6---6-6-6---4---4-4---4-4---4--4--4-]
G [-5---5-5---5-5---6---6-6-6---5---5-5---5-5---5--5--5-]
D [-6---6-6---6-6---6---6-6-6---6---6-6---6-6---6--6--6-]
A [-6---6-6---6-6---4---4-4-4---6---6-6---6-6---6--6--6-]
E [-4---4-4---4-4---------------4---4-4---4-4---4--4--4-]


And if theres anybody...

E [------------------------]
B [------------------------]
G [-7----7\5-----5\3-------]
D [-7----7\5-----5\3-----6-]
A [-5----5\3-----3\1-----6-]
E [----------------------4-]

E [-----------------------------------------------------------------]
B [-----------------------------------------------------------------]
G [-5-5-5-5-5-5-5-5-8-8-8-8-7-7-7-7-5-5-5-5-5-5-5-5-8-8-8-8-7-7-7-7-]
D [-5-5-5-5-5-5-5-5-8-8-8-8-7-7-7-7-5-5-5-5-5-5-5-5-8-8-8-8-7-7-7-7-]
A [-3-3-3-3-3-3-3-3-6-6-6-6-5-5-5-5-3-3-3-3-3-3-3-3-6-6-6-6-5-5-5-5-]
E [-----------------------------------------------------------------]

E [-------------------------------------------------------------------------]
B [-------------------------------------------------------------------------]
G [-13-13-13-13-13-13-13-13-12-12-12-12-12-12-12-12-10-10-10-10-10-10-10-10-]
D [-13-13-13-13-13-13-13-13-12-12-12-12-12-12-12-12-10-10-10-10-10-10-10-10-]
A [-11-11-11-11-11-11-11-11-10-10-10-10-10-10-10-10--8--8--8--8--8--8--8--8-]
E [-------------------------------------------------------------------------]

E [-------------------]
B [-------------------]
G [-8-8-8-8-7-7-7-7-5-]
D [-8-8-8-8-7-7-7-7-5-]
A [-6-6-6-6-5-5-5-5-3-]
E [-------------------]

********************************************
3. Modern Way
********************************************

Transcripted by Tadeusz Pik      teddypeak@wp.pl


*Main riff: (during the verses)
E|----------------------|
B|----------------------|
G|----------------------|
D|---6----9----2----6---|
A|-4----7----0----4-----|
E|----------------------|


C#m               E
I know cause I've seen it
       A          C#m
It was grey and I want it
There`s no point in sitting
Going crazy on my own

Do you know what
I was put here in the world for
Could you tell me
In three words or more

          B           A
 It's the only way of getting out of here
 It's the only way of getting out of here


*In 2nd verse keyboards comes with cool notes
E|-9-9--12-12--5-5--4-4--4-4--4-4--5-5--4-4-|
B|------------------------------------------|
G|------------------------------------------|
D|------------------------------------------|
A|------------------------------------------|
E|------------------------------------------|

Take a lesson
From the ones who have been there
My brain is not damaged
But in need of some repair

Hold on to the basics
But we can't change all our tactics
There`s no point in sitting
Going crazy on your own

 It's the only way of getting out of here
 It's the only way of getting out of here

  A                   C#m
   This is the modern way
             A
   Faking it everyday
                   C#m
   Taking it as we come
                      A
   We're not the only ones
                          C#m
   Is that what we used to say
                           B
   That this is the modern way?


I know where I'm going
I know we are in the knowing
I will stop at nothing
Just to get what I want

 It's the only way of getting out of here
 It's the only way of getting out of here

   This is the modern way
   Faking it everyday
   Taking it as we come
   We're not the only ones
   Is that what we used to say
   That this is the modern way?

   This is the modern way
   Faking it everyday
   Taking it as we come
   We're not the only ones
   Is that what we used to say
   That this is the modern way?

********************************************
4. Na Na Na Na Naa
********************************************

Tabbed by Kevin Ryan (barbarico@gmail.com)

Intro - play E chord(022100) like below
-----

D [---------------]
A [---------7---7-]
E [-0---0---------]


Chords
------

A (x02220)
E (022100)
B (x24442)


A
It does not move me. It does not get me going at all.

E
Na na na na na. Na na na na na

A
It does not shift me. Its not the kind of thing that I like.

E
Na na na na na. Na na na na na

B                        A
It does not move me. Its not the kind of thing that I like.

E
Na na na na na. Na na na na na

A
Shes does not listen. Shes too wrapped up with all of her things.

E
Na na na na na. Na na na na na

A
This does not get to me. Cos shes not the kind of girl that I like.

E
Na na na na na. Na na na na na

B                         A
It does not move me. Shes not the kind of girl that I like.

E
Na na na na na. Na na na na na


Solo
----

E [-------------------------------------------------------------------------------]
B [-------------------------------------------------------------------------------]
G [-------9---11---11b13-----11b13-----11b13-----11b13------11b13r11---9---11---9-]
D [-/11---------------------------------------------------------------------------]
A [-------------------------------------------------------------------------------]
E [-------------------------------------------------------------------------------]

E [-------------------------------------------------------------------------------]
B [------------------------------------------------12-----------------------------]
G [-------9---11---11b13-----11b13-----11b13->-hold bend->->->-13r11---9---11---9-]
D [-/11---------------------------------------------------------------------------]
A [-------------------------------------------------------------------------------]
E [-------------------------------------------------------------------------------]

E [---------------------------------------------------------------------------------]
B [---------------------------------------------------------------------------------]
G [-9------------9------------9------------9------------9------------9h11---9-------]
D [-----9-h-11-------9-h-11-------9-h-11-------9-h-11-------9-h-11-------11---------]
A [---------------------------------------------------------------------------------]
E [---------------------------------------------------------------------------------]

E [-------------------------------------------------------------------------------]
B [-------------------------------------------------------------------------------]
G [-------9---11---11b13-----11b13-----11b13-----11b13------11b13r11---9---11---9-]
D [-/11---------------------------------------------------------------------------]
A [-------------------------------------------------------------------------------]
E [-------------------------------------------------------------------------------]

B                        A
It does not move me. Its not the kind of thing that I like

E
Na na na na na. Na na na na na. Na na na na na. Na na na na na.

A                                                  E
It does not move me. It does not get me going at all

A                                                          E
It does not shift me. It's not the kind of thing that I like

B                        A
It does not move me. Its not the kind of thing that I like

E
Na na na na na. Na na na na na. Na na na na na. Na na na na na.

********************************************
5. You Can Have It All
********************************************

The chords in the other tab were right but it was
missing the outro riffs and a little riff in the
last chorus that renders the song incomplete when
left out because it sounds so good.

Chorus:

D#  D  C  Bb
D#  D  C  C  F  F

Verse:

C  C  C  C
F  F  F  F
C  C  C  C
F  F  F  F

Prechorus:

C  C  F  F
C  C  F  F

Guitar Solo:

e|----------------------|-----------------------|---------------------|
B|----------------------|-----------------------|---------------------|
G|-3-3-3-3-3-2--0--2--3-|--3-3-3-3-3-2--0--2--3-|----0-2--0---0---0---|
D|----------------------|-----------------------|-3---------3---3---3-|
A|----------------------|-----------------------|---------------------|
E|----------------------|-----------------------|---------------------|

e|------------------|----------------------|----------------------|
B|------------------|----------------------|----------------------|
G|-0-2--0---0-2-3/5-|-7-7-7-7-7-5--3--5--7-|-7-7-7-7-7-5--3--5--7-|
D|--------3---------|----------------------|----------------------|
A|------------------|----------------------|----------------------|
E|------------------|----------------------|----------------------|

e|---------------------|------------------|
B|---------------------|------------------|
G|----0-2--0---0---0---|-0-2--0---0-2-3/5-|
D|-3---------3---3---3-|--------3---------|
A|---------------------|------------------|
E|---------------------|------------------|

Outro:

e|-----------------------------|----------------------|
B|-8---------8-----------------|-8---------8----------|
G|---7--8/10------8-7-5----3-2-|---7--8/10------8-7-5-|
D|-----------------------------|----------------------|
A|-----------------------------|----------------------|
E|-----------------------------|----------------------|

e|---------------------|
B|8---------8----------|
G|--7--8/10------8-7-5-|
D|---------------------|
A|---------------------|
E|---------------------|

Order:
Chorus
Verse
Prechorus
Verse
Prechorus
Chorus
Solo
Prechorus
Chorus*
Outro

*This chorus plays
D#  D  C  Bb
D#  D  C  Bb
D#  D  C  Bb
D#  D  C  C  F  F

********************************************
6. Oh My God
********************************************

Piano Intro (chords Dm G)

Then over Dm G

E ---------------10----------------|
B ---------------10----------------|
G ---10-12^------10-------12^------|
D 12--------12---------------------|
A ---------------------------------|
E ---------------------------------|

listen to record for rhythm

Verse: Dm G

Bridge: G Dm C Bb x2, second time Bb for 4 bars

Verse Dm G

Bridge: G Dm C Bb x2, second time 4 bars on Bb

CHORUS: Dm Dm Dm Bb C      repeat as wished
         3 bars - 1 bar

Verse, Bridge, Chorus

Then SOLO

E 1-----------1---------------1-----------1-------------|
B --1-3---------1-3-5-6---------1-3---------1-3-5-6-8---|
G ------------------------------------------------------|  x2
D ------------------------------------------------------|
A ------------------------------------------------------|
E ------------------------------------------------------|
 then after solo from the last 8fret on Bstring, go up in semitones til you reach 21st
on top E string.

Then another chorus


********************************************
7. Born To Be A Dancer
********************************************

Tabbed by Kevin Ryan (barbarico@gmail.com)


Intro
-----

Piano arr. for guitar

E [-----5-------5-------5-------5-------6-------6-------6-------8---]
A [---6---6---6---6---6---6---6---6---6---6---6---7---6---6---6---6-]
D [-7-------7-------7-------7-------7-------7-------7-------7-------]
G [-----------------------------------------------------------------]
B [-----------------------------------------------------------------]
E [-----------------------------------------------------------------]


Guitar

E [------------------------------------------------------]
A [------------------------------------------------------]
D [------------------------------------------------------]
G [--------------------2-3-2-----------------------------]
B [-5---5-------5----5-------5-3-1---1-------1---1--0--0-]
E [-------5---5------------------------1---1-------------]

Verse - (same as intro)
-----

Guitar

E [------------------------------------------------------]
A [------------------------------------------------------]
D [------------------------------------------------------]
G [--------------------2-3-2-----------------------------]
B [-5---5-------5----5-------5-3-1---1-------1---1--0--0-]
E [-------5---5------------------------1---1-------------]

Chorus
------

G F Bb Ab

G  - 355433
F  - 133211
Bb - x13331
Ab - 466544


fill 1 - played after chorus

E [------------------------]
A [------------------------]
D [------------------------]
G [-5---5-5---5-5---5-3--6-]
B [-5---5-5---5-5---5-3--6-]
E [-3---3-3---3-3---3-1--4-]


fill 2 - played after fill 1 on second chorus

E [------------------------]
A [------------------------]
D [----------------------8-]
G [-8---8-8---8-8---8-6--8-]
B [-8---8-8---8-8---8-6--6-]
E [-6---6-6---6-6---6-4----]

Solo
----


E [----------------------------------------------------]
A [----------------------------------------------------]
D [----------------------------------------------------]
G [-7---7-5---5-7--7-8-7-5-----------------------------] x2
B [------------------------8-7-8---8-7---7-8---8--5--5-]
E [----------------------------------------------------]


E [--------------------------------------------------------]
A [--------------------------------------------------------]
D [----------------------5h7-------------------------------]
G [-0---0h2---2/3---3/5------7---7---7---7---7---7---7---7-] x4
B [----------------------------0-------0-------0-------0---]
E [--------------------------------------------------------]


Outro
-----

repeat chorus (x4)...followed by:

E [---------------]
A [---------------]
D [---------------]
G [-5---5-5---5-5-]
B [-5---5-5---5-5-]
E [-3---3-3---3-3-]


********************************************
8. Saturday Night
********************************************

tabbed by LuckyJim (barbarico@gmail.com)


Intro
-----

E [---------------------------]
B [---------------------------]
G [---------------------------]
D [---------------------------]
A [---------------------------]
E [-h3p0---h3p0---h3p0---h3p0-]


Verse
-----

E [--------------------]
B [--------------------]
G [-12-12-12-9---9-9-9-]
D [-12-12-12-9---9-9-9-]
A [-10-10-10-7---7-7-7-]
E [--------------------]


middle riff...

E [------------------------------------------------------------------]
B [------------------------------------------------------------------]
G [----------------------------7--7----------------------------------]
D [-7-7-7-7-7-7-7-7-7-7-7-7-7--7--7--7-7-7-7-7-7-7-7-7-7-7-7-7-7-7-7-]
A [-7-7-7-7-7-7-7-7-7-7-7-7-7--5--5--7-7-7-7-7-7-7-7-7-7-7-7-7-7-7-7-]
E [-5-5-5-5-5-5-5-5-5-5-5-5-5--------5-5-5-5-5-5-5-5-5-5-5-5-5-5-5-5-]


Chorus
------

E [------------------------------------------------------------------]
B [------------------------------------------------------------------]
G [----------------------------7--7----------------------------------]
D [-7-7-7-7-7-7-7-7-7-7-7-7-7--7--7--7-7-7-7-7-7-7-7-7-7-7-7-7-7-7-7-]
A [-7-7-7-7-7-7-7-7-7-7-7-7-7--5--5--7-7-7-7-7-7-7-7-7-7-7-7-7-7-7-7-]
E [-5-5-5-5-5-5-5-5-5-5-5-5-5--------5-5-5-5-5-5-5-5-5-5-5-5-5-5-5-5-]

E [----------------------------------------------------------------------]
B [----------------------------------------------------------------------]
G [-4-4-4-5-5-5-5-5-5-5-5-5-5-5-5--4--4--5-5-5-5-5-5-5-5-5-5-5-5-5-5-5-5-]
D [-4-4-4-5-5-5-5-5-5-5-5-5-5-5-5--4--4--5-5-5-5-5-5-5-5-5-5-5-5-5-5-5-5-]
A [-2-2-2-3-3-3-3-3-3-3-3-3-3-3-3--2--2--3-3-3-3-3-3-3-3-3-3-3-3-3-3-3-3-]
E [----------------------------------------------------------------------]

E [----------------------------------------------------------------------]
B [----------------------------------------------------------------------]
G [-6-6-6-7-7-7-7-7-7-7-7-7-7-7-7--6--6--7-7-7-7-7-7-7-7-7-7-7-7-7-7-7-7-]
D [-6-6-6-7-7-7-7-7-7-7-7-7-7-7-7--6--6--7-7-7-7-7-7-7-7-7-7-7-7-7-7-7-7-]
A [-4-4-4-5-5-5-5-5-5-5-5-5-5-5-5--4--4--5-5-5-5-5-5-5-5-5-5-5-5-5-5-5-5-]
E [----------------------------------------------------------------------]


after 2nd chorus play:

E [--------------------------------------------]
B [--------------------------------------------]
G [-4---4---4-4-4-4-4-4-4-4---2-4-4---4-4-4----]
D [-4---4---4-4-4-4-4-4-4-4---2-4-4---4-4-4----]
A [-2---2---2-2-2-2-2-2-2-2---0/2-2---2-2-2etc-]
E [--------------------------------------------]

E [---------------------------------------------------------------]
B [---------------------------------------------------------------]
G [-4---4---4-4-4-4---4-4-4-7---6---2---2---2-2-2-2---2-2-2-7---6-]
D [-4---4---4-4-4-4---4-4-4-7---6---2---2---2-2-2-2---2-2-2-7---6-]
A [-2---2---2-2-2-2---2-2-2-5---4---0---0---0-0-0-0---0-0-0-5---4-] x2
E [---------------------------------------------------------------]

E [----------------------------------------------------------------------]
B [----------------------------------------------------------------------]
G [-4-4-4-5-5-5-5-5-5-5-5-5-5-5-5--4--4--5-5-5-5-5-5-5-5-5-5-5-5-5-5-5-5-]
D [-4-4-4-5-5-5-5-5-5-5-5-5-5-5-5--4--4--5-5-5-5-5-5-5-5-5-5-5-5-5-5-5-5-]
A [-2-2-2-3-3-3-3-3-3-3-3-3-3-3-3--2--2--3-3-3-3-3-3-3-3-3-3-3-3-3-3-3-3-]
E [----------------------------------------------------------------------]

E [----------------------------------------------------------------------]
B [----------------------------------------------------------------------]
G [-6-6-6-7-7-7-7-7-7-7-7-7-7-7-7--6--6--7-7-7-7-7-7-7-7-7-7-7-7-7-7-7-7-]
D [-6-6-6-7-7-7-7-7-7-7-7-7-7-7-7--6--6--7-7-7-7-7-7-7-7-7-7-7-7-7-7-7-7-]
A [-4-4-4-5-5-5-5-5-5-5-5-5-5-5-5--4--4--5-5-5-5-5-5-5-5-5-5-5-5-5-5-5-5-]
E [----------------------------------------------------------------------]


********************************************
9. What Did I Ever Give You?
********************************************

Standard Tuning

No one had tabbed this so i worked it out and it is close

in the verse you play these chords at the end of each bar
   F5 octave   (x8)
e|---------------------------------------------------------------|
B|---------------------------------------------------------------|
G|-12-12-x-------------------------------------------------------|
D|--x--x-x-------------------------------------------------------|
A|-10-10-x-------------------------------------------------------|
E|---------------------------------------------------------------|

Pre-Chorus- Just play F5 octave (x8x10xx) all through.

Chorus
   C5                       Bb5                  (x2)
e|---------------------------------------------------------------|
B|---------------------------------------------------------------|
G|---------------------------------------------------------------|
D|-10-10-10-10-10-10-10-10--8-8-8-8-8-8-8-8----------------------|
A|-10-10-10-10-10-10-10-10--8-8-8-8-8-8-8-8----------------------|
E|--8--8--8--8--8--8--8--8--6-6-6-6-6-6-6-6----------------------|

Bridge
  |                     |- (x2)  |                |-(x2)
e|---------------------------------------------------------------|
B|---------------------------------------------------------------|
G|---------------------------------------------------------------|
D|---------------------------------------------------------------|
A|---------------------------------------------------------------|
E|-3/10-10-10--3/10-10-10---------1/8-8-8--1/8-8-8---------------|

Chorus 2
   D5                       C5                        (x4)
e|---------------------------------------------------------------|
B|---------------------------------------------------------------|
G|---------------------------------------------------------------|
D|-12-12-12-12-12-12-12-12--10-10-10-10-10-10-10-10--------------|
A|-12-12-12-12-12-12-12-12--10-10-10-10-10-10-10-10--------------|
E|-10-10-10-10-10-10-10-10---8--8--8--8--8--8--8--8--------------|

Order

Intro (Keyboard and drums only)
Verse 1
Pre-Chorus
Verse 2
Pre-Chorus
Chorus 1
Bass Solo
Verse 3
Pre-Chorus
Chorus 1
Bridge
Chorus 2
End on D5

********************************************
10. Time Honoured Tradition
********************************************

intro and verse
e---------------------------------------------------------------------|
b---------------------------------------------------------------------|
g---------------------------------------------------------------------|
d---------------------------------------------------------------------|
a-11-11--9-9--7-7------9-9-7-7-6-6------11-11-9-9-7-7-6-6---4-4-4-2-4-|
E-9--9---7-7--5-5------7-7-5-5-4-4------9--9--7-7-5-5-4-4---2-2-2-0-2-|

AND THAT IS THE END OF THAT
-----------------------------------------------------------------------|
b----------------------------------------------------------------------|
g-----------------------------4b---------------------------------------|
d----------------------------------------------------------------------|
a-----4-4-4-2-4---4-4-4-2-4--------------------------------------------|
E-----2-2-2-0-2---2-2-2-0-2--------------------------------------------|

chorus/OH OH OH OH bit
----------------------------------------------------------------------|
b---------------------------------------------------------------------|
g---------------------------------------------------------------------|
d---------------------------------------------------------------------|
a-4-4-7-7-6-6-7-4-2---------------------------------------------------|
E-2-2-5-5-4-4-5-4-0---------------------------------------------------|


then solo

e---------------------------2-2-5-5-4-4-5-4-0--2-2-5-5-4-4-5-4-0-----|
b---------2-2-5-5-4-4-5-4-0--------------------2-2-5-5-4-4-5-4-0-----|
g-4b--4p0------------------------------------------------------------|
d--------------------------------------------------------------------|
a--------------------------------------------------------------------|
E--------------------------------------------------------------------|

then the chorus etc
and thats the end of that

cheers stu.f (boysintheband forum pro) fentlegend@hotmail.com

********************************************
11. Caroline, Yes
********************************************


Not much guitar in this. (Except bass)

E-----------------------------------------------------------------------------|
B-----------------------------------------------------------------------------|
G-----------------------------------------------------------------------------|
D-----------------------------------------------------------------------------|
A-----------------------------------------------------------------------------|
E-5---------3----0-2-3-2---0--------------------------------------------------|


Solo

E-------------------------------------------------------------|
B-------------------------------------------------------------|
G-------------------------------------------------------------|
D-------------------------------------------------------------|
A---------------3-2-0------------------3-2-0------------------|
E-0-0-2-3-2-3-2----------0-0-2-3-2-3-2------------------------|

E-------------------------------------------------------------|
B-------------------------------------------------------------|
G-------------------------------------------------------------|
D-------------------------------------------------------------|
A---------------3-2-0----2-0---------2-3--2--0---0----0-------|
E-0-0-2-3-2-3-2--------------------------------3----3----3--0-|


                           T H E   E N D
That's the whole album.
-soupdragon
comments
We did not receive enough feedback on this tab! Please rate:
print report bad tab
1 2 3 4 5
2 comments total.
+2 reply
RhcpGuitar wrote on April 26 2008, 10:03 am

Cool thanks the only one with all the tabs together in one place! As long as the people who put these 2gether don't take credit for the tabs, it's a good idea Thanks again

0 reply
Willmiester98 wrote on January 6 2014, 10:03 am

hey, did you forget about Team Mate. No12 on the album.

Was just wondering???

I want to post or [tab]
guest
You may want to rate the tab now too:
select rating
Please do not post tabs as comments. Select "correction" instead!