Oops, an error
Loading. Please wait.

Loves Not A Competition But Im Winning Tab

ver2
ver2

Whole song

Interactive

More versions @911Tabs.com
12,457 views 1 this week
2 commentsread comments
1 2 3 4 5
worth learning
x 6
Autoscroll
+/-
esc
set tempo
stop
Difficulty
novice
NEW! There's an official Ultimate Guitar app which is ideal
for learning songs when you're away from computer. Get the app
WARNING: You are trying to view
                                    content from Ultimate-Guitar.com
                                    in an unauthorized application,
                                    which is prohibited.

                                    Please use an official Ultimate
                                    Guitar Tabs application for iPhone,
                                    iPad or Android to access legitimate
                                    chords, guitar, bass, and drum tabs
                                    from Ultimate-Guitar.com database.

                                    Type "ultimate guitar tabs" in Apple
                                    App Store's or Android Market's
                                    search to find the application.
-------------------------------------------------------------------------------
	     LOVE'S NOT A COMPETITION (BUT I'M WINNING) - Kaiser Chiefs
-------------------------------------------------------------------------------

Tabbed by: ~screenager~
Email: egleriel@hotmail.co.uk

Tuning: Standard (EADGBe)


Riff:

e|--15--15-------------------------------------------------------------------|
B|----------13--13-----------------------------------------------------------|
G|------------------15--15---------------------------------------------------|
D|--------------------------12--12--12-12-12---------------------------------|
A|---------------------------------------------------------------------------|
E|---------------------------------------------------------------------------|

e|--15--15-------------------------------------------------------------------|
B|----------13--13----------13--13--13-13-13---------------------------------|
G|------------------15--15---------------------------------------------------|
D|---------------------------------------------------------------------------|
A|---------------------------------------------------------------------------|
E|---------------------------------------------------------------------------|


[Riff x 2]


Verse 1:

C	Gm		  Bb	     F	     
I won't be the one to disappoint you any more
    C		Gm
And I know I've said all this
		Bb	 F
And that you've heard it all before


    C	     Gm			       Bb	F
The trick is getting you to think that all this was your idea
    C	     Gm
And this was everything
	    Bb	   F 
You've ever wanted out of here



Chorus:

Cm			  	  Gm
Love's not a competition, but I'm winning



Verse 2:

C	Gm		  Bb	     F
I'm not sure what's truly altruistic any more
C	   Gm			
When every good thing that I do
   Bb		      F
Is listed, and you're keeping score



Chorus:

Cm			  	  Gm
Love's not a competition, but I'm winning
Cm				  Gm
Love's not a competition, but I'm winning
	   C			      Gm
At least I thought I was, but there's no way of knowing
	   C			      Gm
At least I thought I was, but there's no way of knowing



    Gm				 Bb		     F
You know what's like when you're new to the game but I'm not



[Riff x2]


(Continue to end; Guitar 1 plays the riff, Guitar 2 plays the chords.)


C	Gm		  Bb	     F	     
I won't be the one to disappoint you
C	Gm		  Bb	     F	     
I won't be the one to disappoint you any more
C	Gm		  Bb	     F	     
I won't be the one to disappoint you
C	Gm		  Bb	     F	     
I won't be the one to disappoint you any more



| /  slide up
| \  slide down
| h  hammer-on
| p  pull-off
| ~  vibrato
| +  harmonic
| x  Mute note
===============================================================================
comments
print report bad tab
2 comments total.
0 reply
Jeminayr wrote on February 8 2008, 11:40 pm

Nice try but it's not right.

0 reply
nemokoning wrote on August 1 2009, 12:21 pm

I think it's more like

e--15-15-----------10-10--------------------|
A--------13-13-------------8-8--8-----------|
G-------------------------------------------| x1
D-------------------------------------------|
A-------------------------------------------|
E-------------------------------------------|

e--15-15-----------10-10---8-8--8-8-8-------|
A--------13-13------------------------------|
G-------------------------------------------|
D-------------------------------------------| x1
A-------------------------------------------|
E-------------------------------------------|

I want to post or [tab]
guest
You may want to rate the tab now too:
select rating
Please do not post tabs as comments. Select "correction" instead!