Oops, an error
Loading. Please wait.

Yours Truly Angry Mob Tab

2,272 views 1 this week
1 commentread comment
1 2 3 4 5
accurate
x 2
Autoscroll
+/-
esc
set tempo
stop
Contributor
Hey! There's an official Ultimate Guitar app which is ideal
for learning songs when you're away from computer. Get the app
WARNING: You are trying to view
                                    content from Ultimate-Guitar.com
                                    in an unauthorized application,
                                    which is prohibited.

                                    Please use an official Ultimate
                                    Guitar Tabs application for iPhone,
                                    iPad or Android to access legitimate
                                    chords, guitar, bass, and drum tabs
                                    from Ultimate-Guitar.com database.

                                    Type "ultimate guitar tabs" in Apple
                                    App Store's or Android Market's
                                    search to find the application.
not all tabs are my creation, im only 13 so apoligies for any mistakes!






e|-------------------------------------------------------------------------|
B|---9p8--8----9p8--8----9p8--8----9p8--8----------------------------------|
G|---8----8----8----8----8----8----8----8----------------------------------|
D|--10p8--8---10p8--8---10p8--8---10p8--8----------------------------------|
A|-------------------------------------------------------------------------|
E|-------------------------------------------------------------------------|



RIFF

e|-------------------------------------------------------------------------|
B|-------------------------------------------------------------------------|
G|-------------------------------------------------------------------------|
D|----------------------13-------------------------------------------------|
A|----------------------13-------------------------------------------------|
E|---6--6-9----1--1/4---11----6--6-9----1--1-4-11--11\9-9\8-8\6------------|

e|-------------------------------------------------------------------------|
B|-------------------------------------------------------------------------|
G|-------------------------------------------------------------------------|
D|----------------------13-------------------------------------------------|
A|----------------------13-------------------------------------------------|
E|---6--6-9----1--1/4---11----6--6-9----1--1-4-11--11\9-9\8-8\6-6\4-4\1----|


VERSE 1

       Bbm                 Fm
Let it never be said, that romance is dead

            Cm                 Eb
Cos there’s so little else occupying my head

         Bbm                       Fm
There is nothing I need except the function to breathe

        Cm                         Eb
But I’m not really fussed, doesn’t matter to me


CHORUS

                  Bbm   Fm    Eb
Ruby, Ruby, Ruby, Ruby

                     Bbm  Fm    Eb
Do ya, do ya, do ya, do ya

e|-------------------------------------------------------------------------|
B|-------------------------------------------------------------------------|
G|-------------------------------------------------------------------------|
D|-------------------------------------------------------------------------|
A|-------------------------------------------------------------------------|
E|-----------------------------6----9---1--4----11--11\9-9\8-8\6-----------|
Know what ya doing, doing to me?

e|-------------------------------------------------------------------------|
B|-------------------------------------------------------------------------|
G|-------------------------------------------------------------------------|
D|-------------------------------------------------------------------------|
A|-------------------------------------------------------------------------|
E|-----------------------------6----9---1--4----/11------------------------|
Ruby, Ruby, Ruby, Ruby


VERSE 2

       Bbm                   Fm
Due to lack of interest tomorrow is cancelled

        Cm                      Eb
e|--------------------------------------------4p3---4p3--------------------|
B|------------------------------------------------4-----4------------------|
G|-------------------------------------------------------------------------|
D|-------------------------------------------------------------------------|
A|-------------------------------------------------------------------------|
E|-------------------------------------------------------------------------|
Let the clocks be reset and the pendulums held

            Bbm                       Fm
Cos there’s nothing at all except the space in between

        Cm                         Eb
Finding out what you’re called and repeating your name


CHORUS

                  Bbm   Fm    Eb
Ruby, Ruby, Ruby, Ruby

                     Bbm  Fm    Eb
Do ya, do ya, do ya, do ya

e|-------------------------------------------------------------------------|
B|-------------------------------------------------------------------------|
G|-------------------------------------------------------------------------|
D|-------------------------------------------------------------------------|
A|-------------------------------------------------------------------------|
E|-----------------------------6----9---1--4----11--11\9-9\8-8\6-----------|
Know what ya doing, doing to me?

e|-------------------------------------------------------------------------|
B|-------------------------------------------------------------------------|
G|-------------------------------------------------------------------------|
D|-------------------------------------------------------------------------|
A|-------------------------------------------------------------------------|
E|-----------------------------6----9---1--4----/11----/12-----------------|
Ruby, Ruby, Ruby, Ruby


MIDDLE 8

Fm                                   C#
Could it be, could it be that you’re joking with me

        Bbm                       Ebm        E
e|-------------------------------------------------------------------------|
B|-------------------------------------------------------------------------|
G|------------------------------------13p12------15p13---------------------|
D|-------------------------------------------------------------------------|
A|-------------------------------------------------------------------------|
E|---------------------------------11---------12---------------------------|
And you don’t really see you with me

Fm                                   C#

Could it be, could it be that you’re joking with me

        Bbm                       Eb          E
e|-------------------------------------------------------------------------|
B|-------------------------------------------------------------------------|
G|------------------------------------13p12------15p13---------------------|
D|-------------------------------------------------------------------------|
A|-------------------------------------------------------------------------|
E|---------------------------------11---------12---------------------------|
And you don’t really see you with me


SOLO
    
    Fm                        C#
e|-------------------------------------------------------------------------|
B|-------------------------------------------------------------------------|
G|-------------------------------------------------------------------------|
D|---10p8-10--10p8-10----6-8--8/10-8\6-------------------------------------|
A|--------------------------------------8----------------------------------|
E|-------------------------------------------------------------------------|

          Bbm                       Eb     E       
e|-------------------------------------------------------------------------|
B|-------------------------------------------------------------------------|
G|-------------------------------------------------------------------------|
D|---6-8--8/10-8\6-------6--8--8/10-8--8-8-9-------------------------------|
A|-----------------8-------------------------------------------------------|
E|-------------------------------------------------------------------------|

    Fm                        C#
e|-------------------------------------------------------------------------|
B|-------------------------------------------------------------------------|
G|-------------------------------------------------------------------------|
D|---10p8-10--10p8-10----6-8--8/10-8\6-------------------------------------|
A|--------------------------------------8----------------------------------|
E|-------------------------------------------------------------------------|

          Bbm                        Eb     E       Fm
e|-------------------------------------------------------------------------|
B|-------------------------------------------------------------------------|
G|-------------------------------------------------------------------------|
D|---6-8--8/10-8\6--------6--8--8/10-8--8-8-9---9-9-10---------------------|
A|-----------------8-------------------------------------------------------|
E|-------------------------------------------------------------------------|


CHORUS

                  Bbm   Fm    Eb
Ruby, Ruby, Ruby, Ruby

                     Bbm  Fm    Eb
Do ya, do ya, do ya, do ya

e|-------------------------------------------------------------------------|
B|-------------------------------------------------------------------------|
G|-------------------------------------------------------------------------|
D|-------------------------------------------------------------------------|
A|-------------------------------------------------------------------------|
E|-----------------------------6----9---1--4----11--11\9-9\8-8\6-----------|
Know what ya doing, doing to me?

e|-------------------------------------------------------------------------|
B|-------------------------------------------------------------------------|
G|-------------------------------------------------------------------------|
D|-------------------------------------------------------------------------|
A|-------------------------------------------------------------------------|
E|-----------------------------6----9---1--4----11--11\9-9\8-8\6-----------|
Ruby, Ruby, Ruby, Ruby


e|-------------------------------------------------------------------------|
B|-------------------------------------------------------------------------|
G|-------------------------------------------------------------------------|
D|-----------------------------------------13------------------------------|
A|-----------------------------------------13------------------------------|
E|-------------------------6--6-9--1--1-4--11------------------------------|
Do ya, do ya, do ya, do ya



e|-------------------------------------------------------13----------------|
B|-------------------------------------------------------13----------------|
G|-------------------------------------------------------13----------------|
D|-----------------------------------------------13--14--15----------------|
A|-----------------------------------------------13--14--------------------|
E|-------------------------------6--6-9--1--1-4--11--12--------------------|





-------------------
The Angry Mob
-------------------

e|-------------------------------------------------------------------------|
B|-----5--5--4--5--5--4--5--5--4--5--5--4----------------------------------|
G|-----6--6--4--6--6--4--6--6--4--6--6--4----------------------------------|
D|-----6--6--4--6--6--4--6--6--4--6--6--4----------------------------------|
A|-------------------------------------------------------------------------|
E|-------------------------------------------------------------------------|

Rpt


Riff 1

e|----------------6-----6-6--5----5----------------------------------------|
B|---5--5--4--5---6-----6-6--5----5----------------------------------------|
G|---6--6--4--6---6-----6-6--6----6----------------------------------------|
D|---6--6--4--6---8-----8-8--7----7----------------------------------------|
A|---4--4--4--4---8-----8-8--7----7----4-4-----4-4-4-----------------------|
E|----------------6-----6-6--5----5-0--2-2--0--2-2-2-----------------------|


Riff 1
I can prove anything
I'll make you admit again and again

Riff 1
That I can prove anything
The way that's it's writ

Riff 2
e|-------------------------------------------------------------------------|
B|-------------------------------------------------------------------------|
G|-------------------------------------------------------------------------|
D|-------------------------------------------------------------------------|
A|----1-------------/4-------------------------1-----------/4--------------|
E|-------------------------------1-----------------------------------------|
And its only 'cos you came here with your brothers too
If you came here on your own you'd be dead

e|-------------------------------------------------------------------------|
B|-------------------------------------------------------------------------|
G|-------------------------------------------------------------------------|
D|-------------------------------------------------------------------------|
A|----1-------------/4-------------------------1---------------------------|
E|-------------------------------1-----------------------------------------|
It's only 'cos you follow what the others do
It's no excuse to say you're easily lead


Riff 1
You can choose anything
You choose to lose again and again

Riff 1
You could do anything
But why should do anything again


Riff 2
Its only cos you came here with your brothers too
If you came here on your own you'd be dead

Riff 2
Winding yourself up until you're turning blue
Repeating everything that you've read



Ab                              Eb  C#
So here we go with the letter:

Ab                          Eb  C#
Well can you fix it for me

B                         Eb C#
Because we need entertainment

B
To keep us all off the streets

B  C# Eb                C#             B
So tonight you'll sleep softly in your bed

e|-------------------------------------------------------------------------|
B|-----5p4-----------------------------------------------------------------|
G|-------------4-----------------------------------------------------------|
D|-----------------4-------------------------------------------------------|
A|-------------------------------------------------------------------------|
E|-------------------------------------------------------------------------|

Riff 1
You could try anything
And no one would know apart from you me

Riff 1
And you could stop anything
It starts with just one and just a two and three


Riff 2
Its only cos you came here with your brothers too
If you came here on your own you'd be dead

Riff 2
You raise a glass or two, and raise a fist or two
And get a shopping basket wrapped round your head


Ab                              Eb  C#
So here we go with the letter:

Ab                          Eb  C#
Well can you fix it for me

B               Eb C#
24 hour drinking

B
To keep us all off the streets

B  C# Eb                C#             B
So tonight you'll sleep softly in your bed

Riff 3
e|-------------------------------------------------------------------------|
B|-------------------------------------------------------------------------|
G|-------------------------------------------------------------------------|
D|---9--11-12-11--12--14\11------------------------------------------------|
A|---9--11-12--9--10--12\9-------------------------------------------------|
E|---7--9--10--------------------------------------------------------------|

Bass transcribed for guitar
e|-------------------------------------------------------------------------|
B|-------------------------------------------------------------------------|
G|-------------------------------------------------------------------------|
D|-------------------------------------------------------------------------|
A|---9h10p9----------------------------------------------------------------|
E|------------12--10--9--7-------------------------------------------------|

Rpt to end

We are the angry mob
We read the papers everyday day
We like who like
We hate who we hate
But we're also easily swayed



--------------
Heat Dies Down
--------------


e|-----33-44-66-44-33--------|
B|--66----------------66-44--|
G|---------------------------|
D|---------------------------|
A|---------------------------|
E|---------------------------|

Verse: (On each cord you have to strum three really fast time's and then let the fourth ring
until the next chord. Listen to the song, and you'll know what i mean.)

"I can ... you and me... out of steam... the moooooootions."
e|-------------------------------------------------------------|
B|-------------------------------------------------------------|
G|-10----------------------------------------------------------|
D|-10--------------10-------------11-----------8--------10-----| X 2
A|-8---------------10-------------11-----------8--------10-----|
E|-----------------8--------------9------------6--------8------|

The third time just strum once. except the last chord. It goes:

e|-------------------------------------------|
B|-------------------------------------------|
G|-10----------------------------------------|
D|-10---10----11----8----10--10-10-10--------|
A|-8----10----11----8----10--10-10-10--------|
E|------8-----9-----6----8---8--8--8---------|

After that you play the same chords, only faster. 8 strums per chord.

Right before the (amazing) chorus at the "So we started..." part keep going on:


e|--------------------|
B|--------------------|
G|--10--10--10--10----|
D|--10--10--10--10----|
A|--8---8---8---8-----|
E|--------------------|

Its the same chords all the way through the song, except at the "Ahh aah aah aaah aaah
aaah aaah.." part. At that point you can hear two guitars. One is playing the chords, and
other one is playing the intro along with the vocals. You just pick whatever you want 
guitarist of Kaiser Chiefs plays the intro part at concerts).


--------------
Highroyds
--------------

e|-------------------------------------------------------------------------|
B|-------------------------------------------------------------------------|
G|-------------------------------------------------------------------------|
D|-------------------------------------------------------------------------|
A|-------------------------------------------------------------------------|
E|---0----0--0--3----5------3----------------------------------------------|

Riff 1 x4

Riff 2 (w/riff 1)
e|-----------3-5-3-5b7b5-3-5--3--0---------3-5-3-5p3p0-5p3p0---------------|
B|---5--5-5-------------------------5--5-5------------------5p3p0----------|
G|-------------------------------------------------------------------------|
D|----------------------------------------------------------------2--------|
A|-------------------------------------------------------------------------|
E|-------------------------------------------------------------------------|

e|-------------------------------------------------------------------------|
B|-------------------------------------------------------------------------|
G|-------------------------------------------------------------------------|
D|-------------------------------------------------------------------------|
A|-------------------------------------------------------------------------|
E|---5---------------------3-----------------------------------------------|
     I remember nights out when we were young

e|-------------------------------------------------------------------------|
B|-------------------------------------------------------------------------|
G|-------------------------------------------------------------------------|
D|-------------------------------------------------------------------------|
A|-------------------------------------------------------------------------|
E|---1---------------------------/5----------------------------------------|
They weren't very good, they were rubbish

e|-------------------------------------------------------------------------|
B|-------------------------------------------------------------------------|
G|-------------------------------------------------------------------------|
D|-------------------------------------------------------------------------|
A|-------------------------------------------------------------------------|
E|---5----------------------\3---------------------------------------------|
     Running round Highroyds isn't fun

e|-------------------------------------------------------------------------|
B|-------------------------------------------------------------------------|
G|-------------------------------------------------------------------------|
D|-------------------------------------------------------------------------|
A|-------------------------------------------------------------------------|
E|--\1----------------------/5---------------------------------------------|
Just teenagers testing their courage

A                           G
Standing outside nightclubs in the snow

     F                  A
It's not very cool or impressive

     A                             G
They let in all the girls from the year below

   F                       A    
No need for IDs with those dresses


Riff 3
e|-------------------------------------------------------------------------|
B|-------------------------------------------------------------------------|
G|-------------------------------------------------------------------------|
D|-------------------------------------------------------------------------|
A|-------------------------------------------------------------------------|
E|-----5--5--7--7--8--8--10--7---------------------------------------------|


B
Got news from afar

B               G
e|-------------------------------------------------------------------------|
B|-------------------------------------------------------------------------|
G|---------------------------------5b7-------------------------------------|
D|-------------------------------------------------------------------------|
A|-------------------------------------------------------------------------|
E|-------------------------------------------------------------------------|
From a girl who knows who were are

B
She's still got my dinner money

B                     Riff 3            
And she can keep it


Riff 1 x4

Riff 2 (with riff 1)



e|-------------------------------------------------------------------------|
B|-------------------------------------------------------------------------|
G|-------------------------------------------------------------------------|
D|-------------------------------------------------------------------------|
A|-------------------------------------------------------------------------|
E|---5-------------------------3-------------------------------------------|
     Never had a fight that we haven't lost

e|-------------------------------------------------------------------------|
B|-------------------------------------------------------------------------|
G|-------------------------------------------------------------------------|
D|-------------------------------------------------------------------------|
A|-------------------------------------------------------------------------|
E|----1--------------------/5----------------------------------------------|
We're not very tough or athletic

e|-------------------------------------------------------------------------|
B|-------------------------------------------------------------------------|
G|-------------------------------------------------------------------------|
D|-------------------------------------------------------------------------|
A|-------------------------------------------------------------------------|
E|---5-------------------------3-------------------------------------------|
     Once I had a boxing champ in a headlock

e|-------------------------------------------------------------------------|
B|-------------------------------------------------------------------------|
G|-------------------------------------------------------------------------|
D|-------------------------------------------------------------------------|
A|-------------------------------------------------------------------------|
E|---1------------------------/5-------------------------------------------|
     When he gets out I'll regret it

Riff 3

B                                        G
Got keys to a car, picked up a girl from Fosters Bar

B                                            Riff 3
The fast food and the cinema, it's not worth it


B                                                  G
Got word from down South, where he had heard it by word of mouth

B                                        Riff 3 x3
Haven't much stayed in touch, since Highroyds

Riff 1 x8

e|-------------------------------------------------------------------------|
B|-------------------------------------------------------------------------|
G|-------------------------------------------------------------------------|
D|-------------------------------------------------------------------------|
A|-------------------------------------------------------------------------|
E|-5--------------------------3--------------------------------------------|
   Let it go, let it go, and if I'm wrong then I won't know

e|-------------------------------------------------------------------------|
B|-------------------------------------------------------------------------|
G|-------------------------------------------------------------------------|
D|-------------------------------------------------------------------------|
A|-------------------------------------------------------------------------|
E|----1--------------------/5----------------------------------------------|
Coz no one's gonna tell me but ...

e|-------------------------------------------------------------------------|
B|-------------------------------------------------------------------------|
G|-------------------------------------------------------------------------|
D|-------------------------------------------------------------------------|
A|-------------------------------------------------------------------------|
E|--5--------------------------3-------------------------------------------|
But he has gone and Ian's gone, And everybody went home

e|-------------------------------------------------------------------------|
B|-------------------------------------------------------------------------|
G|-------------------------------------------------------------------------|
D|-------------------------------------------------------------------------|
A|-------------------------------------------------------------------------|
E|--1--------------------------/5------------------------------------------|
And nobody was left here in the end

B                                                  G
Got news from Uncle Hue, through his second cousin once removed

B                                                          Riff 3
It's too late there's a housing estate, it's called Highroyds

B                                                      G
Got a text from an ex, she wants to know when we're in London next

B                                               Riff 3 x3
Will you write a song about me, I don't think so


---------------
Loves not a.....
---------------



Riff:

e|--15--15-------------------------------------------------------------------|
B|----------13--13-----------------------------------------------------------|
G|------------------15--15---------------------------------------------------|
D|--------------------------12--12--12-12-12---------------------------------|
A|---------------------------------------------------------------------------|
E|---------------------------------------------------------------------------|

e|--15--15-------------------------------------------------------------------|
B|----------13--13----------13--13--13-13-13---------------------------------|
G|------------------15--15---------------------------------------------------|
D|---------------------------------------------------------------------------|
A|---------------------------------------------------------------------------|
E|---------------------------------------------------------------------------|


[Riff x 2]


Verse 1:

C	Gm		  Bb	     F	     
I won't be the one to disappoint you any more
    C		Gm
And I know I've said all this
		Bb	 F
And that you've heard it all before


    C	     Gm			       Bb	F
The trick is getting you to think that all this was your idea
    C	     Gm
And this was everything
	    Bb	   F 
You've ever wanted out of here



Chorus:

Cm			  	  Gm
Love's not a competition, but I'm winning



Verse 2:

C	Gm		  Bb	     F
I'm not sure what's truly altruistic any more
C	   Gm			
When every good thing that I do
   Bb		      F
Is listed, and you're keeping score



Chorus:

Cm			  	  Gm
Love's not a competition, but I'm winning
Cm				  Gm
Love's not a competition, but I'm winning
	   C			      Gm
At least I thought I was, but there's no way of knowing
	   C			      Gm
At least I thought I was, but there's no way of knowing



    Gm				 Bb		     F
You know what's like when you're new to the game but I'm not



[Riff x2]


(Continue to end; Guitar 1 plays the riff, Guitar 2 plays the chords.)


C	Gm		  Bb	     F	     
I won't be the one to disappoint you
C	Gm		  Bb	     F	     
I won't be the one to disappoint you any more
C	Gm		  Bb	     F	     
I won't be the one to disappoint you
C	Gm		  Bb	     F	     
I won't be the one to disappoint you any more

------------
Thankyou very....
---------------

Intro:
C    D# G D# x2

On the verse, you just play the note instead of the chord as above.

Verse 1:
Didn't expect any of this
But it's really nice
Didnt want you to cause a fuss
But it feels alright

After the F on the first two lines of the pre-chorus, just put your hand on the strings 
they can't make any noise and hit them.

Pre-Chorus:
   D#        E    F
So Thank you very much
    D#     E       F
Its really nice to know
     D#    E         C
That you enjoyed the show
      D#          G
And I want you to know when to go

Chorus:
         A#
Cos this should be a thrill
       C
But it feels like a drill
        D                      D#
Now you must let me go, let me go

Verse 2: (On the first two times, you play each chord twice. On the last two you play 
chords continuosly)
C                C
  I just imagine that I'm you
D#                            C#
  And there's nothing nothing nothing I can't do x4

Verse 3: (Same notes as verse 1)
I remember what it was like
And it was really nice
Never thought I would experience this
From the other side

PRE-CHORUS

CHORUS

Before playing verse 2 again, there is an instrumental with the same chords for 2 times.

VERSE 2

The song ends on C


--------------------------
i can do it without you
--------------------------


 E                D                 A         G
e|---------------------------------------------------------------------------|
B|---------------------------------------------------------------------------|
G|---------------------------------------------------------------------------|
D|-------2------2-0-4b----2-0---0-0-2---2-5b------4-2-0---0-0-2--------------|
A|-----2------------------------------0--------------------------------------|
E|-0-------------------------------------------------------------------------|

Verse 1:
E                          D
None of the buildings even look the same,
    A                       G
And underneath them all the shops have changed,
    E                     D
And over time I'll earn a lot more praise,
A                         G
Stacking boxes, we are professionals to stay.

Chorus:
Bm
And I can do it, I can do it,
Bm                           G
I can do it, I can do it without you,
Bm
I can do it, I can do it,
Bm                          G
I can do it, I can do it without you.

Verse 2:
E                    D
I'm returning to the North again,
A                G
Everybody has to talk on the train,
    E                          D
And if you've got nothing that clever to say,
A                         G
Nobody's listening to you anyway.

CHORUS

Solo
This riff is repeated twice to the chord A, once to C and then the last extra bit is 
to D. It is then played again with vocals, twice to A and twice to C before it changes to 
next riff.

e|-0----------------0-2-3-3p2-0---0------------------------------------------|
B|------------------------------3----------7b-7b-7-5-3-5---------------------|
G|---------------------------------------------------------------------------|
D|---------------------------------------------------------------------------|
A|---------------------------------------------------------------------------|
E|---------------------------------------------------------------------------|

This riff is played twice after the solo, the first time hitting the note once, the 
time hitting it 8 times each, then keep playing G.
e|--------------------------------------------------------------------------------|
B|--------------------------------------------------------------------------------|
G|--------------------------------------------------------------------------------|
D|-0------------------------------------------------------------------------------|
A|--------------------------------------------------------------------------------|
E|---------0-------1--------3-----------------------------------------------------|

Verse 3
E                       D
We convinced each other nothing has changed,
A                       G
  Nobody else will ever rock the same,
E                        D
  The adaptation for the stage is now playing,
A                            G
  For your attention all the names have been changed.

Chorus x2 Then the song ends on Em


------------
My kind of guy
-------------

Intro
E|----------------------------------------------------------------------|
B|----------------------------------------------------------------------|
G|---13-16---12-13---13-16--12-13---13-16---12-13--13-16-12-------------|
D|-12------11------12-----11------12------11-----12---------------------|
A|----------------------------------------------------------------------|
E|----------------------------------------------------------------------|

Verse
E|----------------------------------------------------------------------|
B|----------------------------------------------------------------------|
G|----------------7-(X8)------------------------------------------------|
D|--5-(X8)-7-(X8)-7-----------------------------------------------------|
A|--5------7------5-----------------------------------------------------|
E|--3------5------------------------------------------------------------| X2

Bridge
E|----------------------------------------------------------------------|
B|----------------------------------------------------------------------|
G|----------------------------------------------------------------------|
D|----------------------------------------------------------------------|
A|---------------------------7--5-7--5-7--5-7--5-7----------------------|
E|--7-5--7-5--7-5--7-5-7-8-10---------------------10-8-7-5--------------| X2

Chorus
E|----------------------------------------------------------------------|
B|----------------------------------------------------------------------|
G|-----------------9-(X4)-----------------------------------------------|
D|--10-(X4)-7-(X4)-9----------------------------------------------------|
A|--10------7------7----------------------------------------------------|
E|--8-------5-----------------------------------------------------------| X2


----------------
Everything is average
----------------------


D
Sooooooooooooooooooooooo
                          Bm
Everything is average nowadays
                          D
Everything is average nowadays
                             Bm
Everyone would do it if they can
                                 G
And everything is going down the pan
                G/F#          A
And everyone is following the craze

And everything is average

Note: On the G/F# chord, just slide your first finger down to the F# note while keeping 
else in position for the G.

Halfway through the verse, there is a quiet little riff which goes like this:
e|---------------------------------------------------------------------------|
B|-7---8-7-----7---8-7-------------------------------------------------------|
G|---------7-----------7-----------------------------------------------------|
D|---------------------------------------------------------------------------|
A|---------------------------------------------------------------------------|
E|---------------------------------------------------------------------------|

On the second verse, there is another guitar part which goes like this:
e|---------------------------------------------------------------------------|
B|-7-----------------------7-------------------------------------------------|
G|---9--7---7--9b11----------9-7---7-9---------------------------------------|
D|--------9----------------------9-----9-------------------------------------|
A|---------------------------------------------------------------------------|
E|---------------------------------------------------------------------------|

Chorus:
G                      G/F#
Not much to believe in
A
Left up on a shelf
   G                           G/F#
So get your coats we're leaving
      A
We'll just do something else

In the chorus, there is a synthesizer or something playing a riff which goes like this on guitar:

e|-7-5-2-0-2---------7-5-2-0-2-5---------------------------------------------|
B|-----------0---------------------------------------------------------------|
G|---------------------------------------------------------------------------|
D|---------------------------------------------------------------------------|
A|---------------------------------------------------------------------------|
E|---------------------------------------------------------------------------|

Verse 3:
Ohhhh Everything is average nowadays
Everything is average nowadays
And everything is of no consequence
Cos everyone is sitting on the fence
And everything will always stay the same
Cos everything is average

Verse 4:
Now you said you didn't mean it
You threw away the book of rules
You thought that we should read it
I wouldn't even know how to

Chorus:
Not much to believe in
Left up on the shelf
So get your coats we're leaving
We'll just do something else

Middle 8:
B               E
All I need is a ball and a wall
     A                    G     A          B
Or a sledge and a hill in heavy weather x2

At this point the chords go back to the verse, along with the first riff.

Chorus:
Not much to believe in
Left up on the shelf
So get your coats we're leaving
We'll just do something else

In the background, the guitar playing the riff just before now plays this:

e|------------------------------------------------------------------------------|
B|------------------------------------------------------------------------------|
G|-4----2---------------------------2----4---2-------------------2----7----9----|
D|----------5----4----2----4----5-----------------5----4----2-------------------|
A|------------------------------------------------------------------------------|
E|------------------------------------------------------------------------------|

Verse 5:
E
Sooooooooooooooooooooooo
                          C#m
Everything is average nowadays
                          E
Everything is average nowadays
                             C#m
Everyone would do it if they can
                                 A
And everything is going down the pan
                              B
And everyone is following the craze
                              E
And everything is average nowadays

-------------------
learnt my lessons well
------------------

  	 Learnt My Lesson Well Chords by Kaiser Chiefs, www.Ultimate-Guitar.Com

Album: Yours Truly, Angry Mob
Year: 2007

Verse 1:
Am               G
I'm just waiting for
    F#               F
The man to come with all my things
    Am               G
And i'm just waiting for
 F#            F
Another man to take it all

Verse 2:
And its not hard to tell
That I learnt my lesson well
And I'm just waiting for
The man to come and go away

Chorus:
A7           D
What are you waiting for
    A7          D
Get up off your seat
G        C     
Its just seven days
G            C
Feels like a week

What are you moaning for
You got all that you want
Your life could be worse
You could be a nurse

Verse 3:
It seems so sensible
For us to keep the purse strings tight
And move the decimals
A couple of places to the right

Verse 4:
And its not hard to tell
That I learnt my lesson well
It seems most sensible
But not exactly what we'd like

Chorus:
What are you waiting for
Get up off your seat
Its just seven days
Feels like a week

What are you moaning for
You got all that you want
Our life could be worse
You know, we all could be cursed

Middle 8:
F            E
I Can't help feel like this
D            A
So don't rearrange it
F               E
I don't mean to be a dick
D                     A   
I just don't like the changes
F                E     
I can't help the things I say
D                    A
You know wouldn't to strangers
F                E      
But I don't like going away
D                 A      C G A
Cos it puts me in danger

Verse 5:
I can tell you now
There ain't a problem can't be solved
With a good old fashioned row
So grit your teeth and stand your ground

Verse 6:
And its not hard to tell
That I learnt my lesson well
But I'm still waiting for
The man to come with all my things

CHORUS

F  E  D  A


----------------
Retirement
----------------


e-------------------------------------------------------------|
B-------------------------------------------------------------|
G-------------------------------------------------------------|
D-------------------------------------------------------------|
A--9--9--9--9--4--4--8--8--5--5--5--5--2--2--5--5--9--9--9--9-|
E-------------------------------------------------------------|

then just repeat that thru the verse and the chorus (a pretty repetitive song)

you could also play the D string in the chorus with these chords to be a bit more interesting

e--------------------------------------------------------------|
B--------------------------------------------------------------|
G--------------------------------------------------------------|
D--11-11-11-11-6--6--10-10-7--7--7--7--4--4--7--7--11-11-11-11-|
A--9--9--9--9--4--4--8--8--5--5--5--5--2--2--5--5--9--9--9--9--|
E--------------------------------------------------------------|

then theres a bit at the end of the chorus

e-------------------------|
B-------------------------|
G-------------------------|
D--11-6--8--4--11-6--8--4-|
A--9--4--7--2--9--4--7--2-|
E-------------------------|

that pretty much it

comments
We did not receive enough feedback on this tab! Please rate:
print report bad tab
1 2 3 4 5
1 comment total.
0 reply
fender-lespaul wrote on May 8 2010, 03:37 pm

You're missing the song "try your best"

I want to post or [tab]
guest
You may want to rate the tab now too:
select rating
Please do not post tabs as comments. Select "correction" instead!