Oops, an error
Loading. Please wait.

Bird Of Ill Omen Tab

ver2
ver2

Whole song

More versions @911Tabs.com
1,879 views 6 this week
1 commentread comment
1 2 3 4 5
excellent!
x 1
Autoscroll
+/-
esc
set tempo
stop
Contributor
Difficulty
intermediate
WARNING: You are trying to view
                                    content from Ultimate-Guitar.com
                                    in an unauthorized application,
                                    which is prohibited.

                                    Please use an official Ultimate
                                    Guitar Tabs application for iPhone,
                                    iPad or Android to access legitimate
                                    chords, guitar, bass, and drum tabs
                                    from Ultimate-Guitar.com database.

                                    Type "ultimate guitar tabs" in Apple
                                    App Store's or Android Market's
                                    search to find the application.
                               Bird of Ill Omen                                 

Tabbed by xAncestorx use it as you please.

not everything is done, but most. better than all tabs I've seen here.
email CKYbamargeraO@hotmail.com
                                                                          Kalmah
Antti



             S S S S S S S S S S S S S S S S  
D||-------|----------------------------------|
A||-------|--8-0-0-5-7-8-0-0-8-0-0-5-7-8-0-0-|
F||-------|----------------------------------|
C||-------|----------------------------------|
G||-------|----------------------------------|
D||-------|----------------------------------|


  S S S S S S S S S S S S S S S S    S S S S S S S S S S S S S S S S  
----------------------------------|----------------------------------|
--8-0-0-5-7-8-0-0-8-0-0-5-7-8-0-0-|--8-0-0-5-7-8-0-0-8-0-0-5-7-8-0-0-|
----------------------------------|----------------------------------|
----------------------------------|----------------------------------|
----------------------------------|----------------------------------|
----------------------------------|----------------------------------|


  S S S S S S S S S S S S S S S S      S S S S S S S S S S S S S S S S  
----------------------------------||-----------------------------------|
--8-0-0-5-7-8-0-0-8-0-4-0-5-0-7-0-||---8-0-0-5-7-8-0-0-8-0-0-5-7-8-0-0-|
----------------------------------||*----------------------------------|
----------------------------------||*----------------------------------|
----------------------------------||-----------------------------------|
----------------------------------||-----------------------------------|


   S S S  S  S  S S S  S S S  S S S S S  4x          
-----------------------------------------||----|----|
--13-0-0-10-12-13-0-0-10-0-8-10-7-0-7-8--||----|----|
----------------------------------------*||----|----|
----------------------------------------*||----|----|
-----------------------------------------||----|----|
-----------------------------------------||----|----|


  S S S S S Q     S S S S S S S      S S S S S S S S S S S S S S S S  
--7-8-5-8-5-5~------------------||-----------------------------------|
--------------------------------||---8-0-0-5-7-8-0-0-8-0-0-5-7-8-0-0-|
--------------------4-----------||*----------------------------------|
----------------------5-4-2-4-2-||*----------------------------------|
--------------------------------||-----------------------------------|
--------------------------------||-----------------------------------|


   S S S  S  S  S S S  S S S  S S S S S  4x                    
-----------------------------------------||----|----|----|----|
--13-0-0-10-12-13-0-0-10-0-8-10-7-0-7-8--||----|----|----|----|
----------------------------------------*||----|----|----|----|
----------------------------------------*||----|----|----|----|
-----------------------------------------||----|----|----|----|
-----------------------------------------||----|----|----|----|


  H        Q    Q       H        Q     Q       H        Q    Q     
---------------------|----------------------|---------------------|
--5-------------7----|--8-------------10----|--8-------------7----|
---------------------|----------------------|---------------------|
---------------------|----------------------|---------------------|
---------------------|----------------------|---------------------|
---------------------|----------------------|---------------------|


  Q     Q    Q    Q        H        Q     Q        H        Q     Q     
-----------------------|--12-------------14----|--15-------------17----|
--5s----7----3---------|-----------------------|-----------------------|
-----------------------|-----------------------|-----------------------|
-----------------------|-----------------------|-----------------------|
-----------------------|-----------------------|-----------------------|
-----------------------|-----------------------|-----------------------|


   H        Q     Q        Q     Q     Q    Q     
--15-------------17----|--19----20----19---------|
-----------------------|-------------------------|
-----------------------|-------------------------|
-----------------------|-------------------------|
-----------------------|-------------------------|
-----------------------|-------------------------|


    T T T T T T T T T T T T T T T T T T T T T T T T T T T T T T T T  
|-------------------------------------------------------------------|
|-------------------------------------------------------------------|
|*------------------------------------------------------------------|
|*--5-5-5-5-5-5-5-5-5-5-5-5-5-5-5-5-7-7-7-7-7-7-7-7-9-9-9-9-9-9-9-9-|
|-------------------------------------------------------------------|
|-------------------------------------------------------------------|


  T T T T T T T T T T T T T T T T T T T T T T T T T T T T T T T T  
------------------------------------------------------------------|
------------------------------------------------------------------|
------------------------------------------------------------------|
--7-7-7-7-7-7-7-7-----------------7-7-7-7-7-7-7-7-5-5-5-5-5-5-5-5-|
------------------6-6-6-6-6-6-6-6---------------------------------|
------------------------------------------------------------------|


  T T T T T T T T T T T T T T T T T T T T T T T T T T T T T T T T  
------------------------------------------------------------------|
------------------------------------------------------------------|
------------------------------------------------------------------|
--5-5-5-5-5-5-5-5-7-7-7-7-7-7-7-7-9-9-9-9-9-9-9-9-5-5-5-5-5-5-5-5-|
------------------------------------------------------------------|
------------------------------------------------------------------|


  T T T T T T T T T T T T T T T T T T T T T T T T T T T T T T T T    
-------------------------------------------------------------------||
-------------------------------------------------------------------||
------------------------------------------------------------------*||
------------------9-9-9-9-9-9-9-9-----------------7-7-7-7-7-7-7-7-*||
--6-6-6-6-6-6-6-6-----------------6-6-6-6-6-6-6-6------------------||
-------------------------------------------------------------------||


   S S S S S S S S S S S S S S S S     S S S  S  S  S S S  S S S  S S S S S  4x
-----------------------------------|-----------------------------------------||
---8-0-0-5-7-8-0-0-8-0-0-5-7-8-0-0-|--13-0-0-10-12-13-0-0-10-0-8-10-7-0-7-8--||
*----------------------------------|----------------------------------------*||
*----------------------------------|----------------------------------------*||
-----------------------------------|-----------------------------------------||
-----------------------------------|-----------------------------------------||


   T T T T T T T T T T T T T T T T T T T T T T T T T T T T T T T T  
-------------------------------------------------------------------|
-------------------------------------------------------------------|
*------------------------------------------------------------------|
*--5-5-5-5-5-5-5-5-5-5-5-5-5-5-5-5-7-7-7-7-7-7-7-7-9-9-9-9-9-9-9-9-|
-------------------------------------------------------------------|
-------------------------------------------------------------------|


  T T T T T T T T T T T T T T T T T T T T T T T T T T T T T T T T  
------------------------------------------------------------------|
------------------------------------------------------------------|
------------------------------------------------------------------|
--7-7-7-7-7-7-7-7-----------------7-7-7-7-7-7-7-7-5-5-5-5-5-5-5-5-|
------------------6-6-6-6-6-6-6-6---------------------------------|
------------------------------------------------------------------|


  T T T T T T T T T T T T T T T T T T T T T T T T T T T T T T T T  
------------------------------------------------------------------|
------------------------------------------------------------------|
------------------------------------------------------------------|
--5-5-5-5-5-5-5-5-7-7-7-7-7-7-7-7-9-9-9-9-9-9-9-9-5-5-5-5-5-5-5-5-|
------------------------------------------------------------------|
------------------------------------------------------------------|


  T T T T T T T T T T T T T T T T T T T T T T T T T T T T T T T T    
-------------------------------------------------------------------||
-------------------------------------------------------------------||
------------------------------------------------------------------*||
------------------9-9-9-9-9-9-9-9-----------------7-7-7-7-7-7-7-7-*||
--6-6-6-6-6-6-6-6-----------------6-6-6-6-6-6-6-6------------------||
-------------------------------------------------------------------||


   S S S S S S S S S S S S S S S S     S S S  S  S  S S S  S S S  S S S S S  4x
-----------------------------------|-----------------------------------------||
---8-0-0-5-7-8-0-0-8-0-0-5-7-8-0-0-|--13-0-0-10-12-13-0-0-10-0-8-10-7-0-7-8--||
*----------------------------------|----------------------------------------*||
*----------------------------------|----------------------------------------*||
-----------------------------------|-----------------------------------------||
-----------------------------------|-----------------------------------------||


                S S S S S S S S S S S S S S S S  
-----|-----||-----------------------------------|
-----|-----||-----------------------------------|
*----|----*||*--7-7-7-7-7-7-5-5-8-8-5-5-7-7-5-5-|
*----|----*||*----------------------------------|
-----|-----||-----------------------------------|
-----|-----||-----------------------------------|


  S S S S S S S S S S S S S S S S  4x   S S S S S S S S  S  S  S S S S S S  
-----------------------------------||--------------------------------------|
-----------------------------------||--------------------------------------|
--5-5---------7-------------5-----*||*-------------------------------------|
------8-8-8-8---8-8-4-4-4-4---4-4-*||*--9-9-9-9-9-9-7-7-10-10-10-7-7-9-9-9-|
-----------------------------------||--------------------------------------|
-----------------------------------||--------------------------------------|


  S S  S  S  S  S S  S  S S S S S S S S  4x  H        Q    Q     
-----------------------------------------||---------------------|
-----------------------------------------||--5-------------7----|
----------------------------------------*||---------------------|
--7-7-------------9---------------7-----*||---------------------|
------10-10-10-10---10-10-6-6-6-6---6-6--||---------------------|
-----------------------------------------||---------------------|


  H        Q     Q       H        Q    Q       Q     Q    Q    Q     
----------------------|---------------------|-----------------------|
--8-------------10----|--8-------------7----|--5s----7----3---------|
----------------------|---------------------|-----------------------|
----------------------|---------------------|-----------------------|
----------------------|---------------------|-----------------------|
----------------------|---------------------|-----------------------|


  H        S S S S S S S S    S S S S S S S S S S S S S S  S S  
---------------------------|--------------------------7-8-10---|
--5----------5-7-8-7-5---5-|--------------------5-7-8--------8-|
-----------------------9---|-----------------------------------|
---------------------------|-----------------------------------|
---------------------------|-----------------------------------|
---------------------------|-----------------------------------|


  S S S S S S S S S S S S S S S S    S S S S S S S S S                          
--------7-------8-------7---------|--------------------|-------|-------|-------|
--5-7-8---5-7-8---5-7-8---5-7-8-7-|--5-8-7-5---5-------|-------|-------|-------|
----------------------------------|----------9---7-5-4-|-------|-------|-------|
----------------------------------|--------------------|-------|-------|-------|
----------------------------------|--------------------|-------|-------|-------|
----------------------------------|--------------------|-------|-------|-------|


-------||
-------||
-------||
-------||
-------||
-------||

                               Bird of Ill Omen                                 


                                                                          Kalmah
Pekka



                              S S S S  S  S S S  S S S S  S  S S S  
D||-------|-------|-------|----------------------------------------|
A||-------|-------|-------|--12-0-0-8-10-12-0-0-12-0-0-8-10-12-0-0-|
F||-------|-------|-------|----------------------------------------|
C||-------|-------|-------|----------------------------------------|
G||-------|-------|-------|----------------------------------------|
D||-------|-------|-------|----------------------------------------|


   S S S S  S  S S S  S S S S S S  S S      S S S S S S S S S S S S S S S S  
---------------------------------------||-----------------------------------|
--12-0-0-8-10-12-0-0-12-0-7-0-8-0-10-0-||-----------------------------------|
---------------------------------------||*----------------------------------|
---------------------------------------||*------------------------7-7-9-9-9-|
---------------------------------------||---7-7-7-7-7-7-7-7-7-7-7-----------|
---------------------------------------||-----------------------------------|


   S  S  S  S  S  S  S  S S S S S S S S S  4x  S S S S S S S S S S S S S S S S  
-------------------------------------------||----------------------------------|
-------------------------------------------||----------------------------------|
------------------------------------------*||----------------------------------|
--10-10-10-10-10-10-10-10-5-5-5-5-7-7-7-7-*||--2-2-2---2-2---2-2-2---2-2---2-2-|
-------------------------------------------||--2-2-2---2-2---2-2-2---2-2---2-2-|
-------------------------------------------||--0-0-0---0-0---0-0-0---0-0---0-0-|


  S S S S S S S S S S S S S S S S           S S S S S S S S S S S S S S S S  
----------------------------------|----||-----------------------------------|
----------------------------------|----||-----------------------------------|
----------------------------------|----||*----------------------------------|
--2---2-2---2-2-2---2---2---2-----|----||*--2-----2-----2-----2-------------|
--2---2-2---2-2-2---2---2---2-----|----||---2-----2-----2-----2-------------|
--0---0-0---0-0-0---0---0---0-----|----||---0-0-0-0-0-0-0-0-0-0-0-0-0-0-0-0-|


  S S S S S S S S S S S S S S S S  4x  H        Q    Q     
-----------------------------------||---------------------|
-----------------------------------||---------------------|
----------------------------------*||---------------------|
--2-----2-----2---7---5-7-4---4-5-*||--5-------------7----|
--3-3-3-3-3-3-3--------------------||--7-------------9----|
--------------------0-------0------||---------------------|


   H        Q     Q        H        Q    Q       Q    Q    Q    Q     
-----------------------|----------------------|----------------------|
-----------------------|----------------------|----------------------|
-----------------------|----------------------|----------------------|
---9-------------10----|---9-------------7----|--5----7----4---------|
--10-------------12----|--10-------------9----|--7----9----5---------|
-----------------------|----------------------|----------------------|


  S S S S S S S S S S S S S S S S    S S S S S S S S S S S S S S S S  
----------------------------------|----------------------------------|
----------------------------------|----------------------------------|
----------------------------------|----------------------------------|
--2---2-2-2---2-2-2---2-2-2-2-2-2-|--2---2-2-2---2-2-2---2-2-2-2-2-2-|
--2---2-2-2---2-2-2---2-2-2-2-2-2-|--2---2-2-2---2-2-2---2-2-2-2-2-2-|
--0---0-0-0---0-0-0---0-0-0-0-0-0-|--0---0-0-0---0-0-0---0-0-0-0-0-0-|


  S S S S S S S S S S S S S S S S    S S S S S S S S S S S S S S S S  
----------------------------------|----------------------------------|
----------------------------------|----------------------------------|
----------------------------------|----------------------------------|
--2---2-2-2---2-2-2---2-2-2-2-2-2-|--2---2-2-2---2-2-2---2-2-2-2-2-2-|
--2---2-2-2---2-2-2---2-2-2-2-2-2-|--2---2-2-2---2-2-2---2-2-2-2-2-2-|
--0---0-0-0---0-0-0---0-0-0-0-0-0-|--0---0-0-0---0-0-0---0-0-0-0-0-0-|


  S S S S S S S S S S S S S S S S    S S S S S S S S S S S S S S S S  
----------------------------------|----------------------------------|
----------------------------------|----------------------------------|
----------------------------------|----------------------------------|
--2---2-2-2---2-2-2---2-2-2-2-2-2-|--2---2-2-2---2-2-2---2-2-2-2-2-2-|
--2---2-2-2---2-2-2---2-2-2-2-2-2-|--2---2-2-2---2-2-2---2-2-2-2-2-2-|
--0---0-0-0---0-0-0---0-0-0-0-0-0-|--0---0-0-0---0-0-0---0-0-0-0-0-0-|


  S S S S S S S S S S S S S S S S    S S S S S S S S S S S S S S S S  
----------------------------------|----------------------------------|
----------------------------------|----------------------------------|
----------------------------------|----------------------------------|
--2---2-2-2---2-2-2---2-2-2-2-2-2-|--2---2-2-2---2-2-2---2-2-2-2-2-2-|
--2---2-2-2---2-2-2---2-2-2-2-2-2-|--2---2-2-2---2-2-2---2-2-2-2-2-2-|
--0---0-0-0---0-0-0---0-0-0-0-0-0-|--0---0-0-0---0-0-0---0-0-0-0-0-0-|


    T T T T T T T T T T T T T T T T T T T T T T T T T T T T T T T T  
|-------------------------------------------------------------------|
|-------------------------------------------------------------------|
|*------------------------------------------------------------------|
|*--5-5-5-5-5-5-5-5-5-5-5-5-5-5-5-5-7-7-7-7-7-7-7-7-9-9-9-9-9-9-9-9-|
|-------------------------------------------------------------------|
|-------------------------------------------------------------------|


  T T T T T T T T T T T T T T T T T T T T T T T T T T T T T T T T  
------------------------------------------------------------------|
------------------------------------------------------------------|
------------------------------------------------------------------|
--7-7-7-7-7-7-7-7-----------------7-7-7-7-7-7-7-7-5-5-5-5-5-5-5-5-|
------------------6-6-6-6-6-6-6-6---------------------------------|
------------------------------------------------------------------|


  T T T T T T T T T T T T T T T T T T T T T T T T T T T T T T T T  
------------------------------------------------------------------|
------------------------------------------------------------------|
------------------------------------------------------------------|
--5-5-5-5-5-5-5-5-7-7-7-7-7-7-7-7-9-9-9-9-9-9-9-9-5-5-5-5-5-5-5-5-|
------------------------------------------------------------------|
------------------------------------------------------------------|


  T T T T T T T T T T T T T T T T T T T T T T T T T T T T T T T T    
-------------------------------------------------------------------||
-------------------------------------------------------------------||
------------------------------------------------------------------*||
------------------9-9-9-9-9-9-9-9-----------------7-7-7-7-7-7-7-7-*||
--6-6-6-6-6-6-6-6-----------------6-6-6-6-6-6-6-6------------------||
-------------------------------------------------------------------||


   S S S S S S S S S S S S S S S S    S S S S S S S S S S S S S S S S  4x
-----------------------------------|-----------------------------------||
-----------------------------------|-----------------------------------||
*----------------------------------|----------------------------------*||
*--2-----2-----2-----2-------------|--2-----2-----2---7---5-7-4---4-5-*||
---2-----2-----2-----2-------------|--3-3-3-3-3-3-3--------------------||
---0-0-0-0-0-0-0-0-0-0-0-0-0-0-0-0-|--------------------0-------0------||


   T T T T T T T T T T T T T T T T T T T T T T T T T T T T T T T T  
-------------------------------------------------------------------|
-------------------------------------------------------------------|
*------------------------------------------------------------------|
*--5-5-5-5-5-5-5-5-5-5-5-5-5-5-5-5-7-7-7-7-7-7-7-7-9-9-9-9-9-9-9-9-|
-------------------------------------------------------------------|
-------------------------------------------------------------------|


  T T T T T T T T T T T T T T T T T T T T T T T T T T T T T T T T  
------------------------------------------------------------------|
------------------------------------------------------------------|
------------------------------------------------------------------|
--7-7-7-7-7-7-7-7-----------------7-7-7-7-7-7-7-7-5-5-5-5-5-5-5-5-|
------------------6-6-6-6-6-6-6-6---------------------------------|
------------------------------------------------------------------|


  T T T T T T T T T T T T T T T T T T T T T T T T T T T T T T T T  
------------------------------------------------------------------|
------------------------------------------------------------------|
------------------------------------------------------------------|
--5-5-5-5-5-5-5-5-7-7-7-7-7-7-7-7-9-9-9-9-9-9-9-9-5-5-5-5-5-5-5-5-|
------------------------------------------------------------------|
------------------------------------------------------------------|


  T T T T T T T T T T T T T T T T T T T T T T T T T T T T T T T T    
-------------------------------------------------------------------||
-------------------------------------------------------------------||
------------------------------------------------------------------*||
------------------9-9-9-9-9-9-9-9-----------------7-7-7-7-7-7-7-7-*||
--6-6-6-6-6-6-6-6-----------------6-6-6-6-6-6-6-6------------------||
-------------------------------------------------------------------||


   S S S S S S S S S S S S S S S S    S S S S S S S S S S S S S S S S  4x
-----------------------------------|-----------------------------------||
-----------------------------------|-----------------------------------||
*----------------------------------|----------------------------------*||
*--2-----2-----2-----2-------------|--2-----2-----2---7---5-7-4---4-5-*||
---2-----2-----2-----2-------------|--3-3-3-3-3-3-3--------------------||
---0-0-0-0-0-0-0-0-0-0-0-0-0-0-0-0-|--------------------0-------0------||


   S S S S S S S S S S S S S S S S    S S S S S S S S S S S S S S S S    
-----------------------------------|-----------------------------------||
-----------------------------------|-----------------------------------||
*----------------------------------|----------------------------------*||
*--2-2-2---2-2---2-2-2---2-2---2-2-|--2---2-2---2-2-2---2-2-2---2-2---*||
---2-2-2---2-2---2-2-2---2-2---2-2-|--2---2-2---2-2-2---2-2-2---2-2----||
---0-0-0---0-0---0-0-0---0-0---0-0-|--0---0-0---0-0-0---0-0-0---0-0----||


   E  S S E  S S E  S S E  E     S S S S S S S S S S S S S S S S  4x      
------------------------------|-----------------------------------||-----|
------------------------------|-----------------------------------||-----|
*--7------7------8------7-----|----------------------------------*||*----|
*--7------7------8------7-----|----------------------------------*||*----|
---5------5------6------5-----|------------5---------------3------||-----|
------0-0----0-0----0-0----0--|--8-8-6-6-6---6-6-6-2-2-2-2---2-2--||-----|


     4x  H        Q    Q        H        Q     Q        H        Q    Q     
-----||---------------------|-----------------------|----------------------|
-----||---------------------|-----------------------|----------------------|
----*||---------------------|-----------------------|----------------------|
----*||--5-------------7----|---9-------------10----|---9-------------7----|
-----||--7-------------9----|--10-------------12----|--10-------------9----|
-----||---------------------|-----------------------|----------------------|


  Q    Q    Q    Q       S S S S S S S S S S S S S S S S  
----------------------|----------------------------------|
----------------------|----------------------------------|
----------------------|----------------------------------|
--5----7----4---------|--2---2-2-2---2-2-2---2-2-2-2-2-2-|
--7----9----5---------|--2---2-2-2---2-2-2---2-2-2-2-2-2-|
----------------------|--0---0-0-0---0-0-0---0-0-0-0-0-0-|


  S S S S S S S S S S S S S S S S    S S S S S S S S S S S S S S S S  
----------------------------------|----------------------------------|
----------------------------------|----------------------------------|
----------------------------------|----------------------------------|
--5---5-5-5---5-5-5---5-5-5-5-5-5-|--2---2-2-2---2-2-2---2-2-2-2-2-2-|
--7---7-7-7---7-7-7---7-7-7-7-7-7-|--3---3-3-3---3-3-3---3-3-3-3-3-3-|
----------------------------------|----------------------------------|


  S S S S S S S S S S S S S S S S    S S S S S S S S S S S S S S S S  
----------------------------------|----------------------------------|
----------------------------------|----------------------------------|
----------------------------------|----------------------------------|
--4---4-4-4---4-4-1---1-1-1---1-1-|--2---2-2-2---2-2-2---2-2-2-2-2-2-|
--5---5-5-5---5-5-2---2-2-2---2-2-|--2---2-2-2---2-2-2---2-2-2-2-2-2-|
----------------------------------|--0---0-0-0---0-0-0---0-0-0-0-0-0-|


  S S S S S S S S S S S S S S S S    S S S S S S S S S S S S S S S S  
----------------------------------|----------------------------------|
----------------------------------|----------------------------------|
----------------------------------|----------------------------------|
--5---5-5-5---5-5-5---5-5-5-5-5-5-|--2---2-2-2---2-2-2---2-2-2-2-2-2-|
--7---7-7-7---7-7-7---7-7-7-7-7-7-|--3---3-3-3---3-3-3---3-3-3-3-3-3-|
----------------------------------|----------------------------------|


  S S S S S S S S S S S S S S S S   
----------------------------------||
----------------------------------||
----------------------------------||
--4---4-4-4---4-4-1---1-1-1---1-1-||
--5---5-5-5---5-5-2---2-2-2---2-2-||
----------------------------------||


comments
We did not receive enough feedback on this tab! Please rate:
print report bad tab
1 2 3 4 5
1 comment total.
0 reply
4coustiks wrote on November 3 2009, 01:46 pm

To me, it seems perect dude! great tab!

I want to post or [tab]
guest
You may want to rate the tab now too:
select rating
Please do not post tabs as comments. Select "correction" instead!