Oops, an error
Loading. Please wait.

Swamphell Tab

ver1
ver1

Whole song

Interactive

More versions @911Tabs.com
4,423 views 1 this week
1 commentread comment
1 2 3 4 5
excellent!
x 2
add to favorites launch autoscroll
font size
0
reset
Autoscroll
+/-
esc
set tempo
stop
Contributor
WARNING: You are trying to view
                                    content from Ultimate-Guitar.com
                                    in an unauthorized application,
                                    which is prohibited.

                                    Please use an official Ultimate
                                    Guitar Tabs application for iPhone,
                                    iPad or Android to access legitimate
                                    chords, guitar, bass, and drum tabs
                                    from Ultimate-Guitar.com database.

                                    Type "ultimate guitar tabs" in Apple
                                    App Store's or Android Market's
                                    search to find the application.
       S  S  S  S  S  S  S  S  S  S  S  S  S  S  S  S  
D#||--------------------------------------------------|
A#||--------------------12-13-15-13-12----------------|
F#||-----------10-13-14----------------13-------------|
C#||--10-12-14----------------------------15-14-12-15-|
G#||--------------------------------------------------|
D#||--------------------------------------------------|


   S  S  S  S  S  S  S  S  S  S  S  S  S  S  S  S  
--------------------------------------------------|
--13-------------------13-12-------12-17-------15-|
-----14----------------------12----------17-16----|
--------14----------14----------14----------------|
-----------15-12-15-------------------------------|
--------------------------------------------------|


   S  S  S  S  S  S  S  S  S  S  S  S  S  S  S  S  
--------------------------------------------------|
--13-------------------13-12-------12-17-------15-|
-----14----------------------12----------17-16----|
--------14----------14----------14----------------|
-----------15-12-15-------------------------------|
--------------------------------------------------|


   S  S  S  S  S  S  S  S  S  S  S  S  S  S  S  S  
--------------------------------------------------|
--13-------------------13-12-------12-17-------15-|
-----14----------------------12----------17-16----|
--------14----------14----------14----------------|
-----------15-12-15-------------------------------|
--------------------------------------------------|


   S  S  S  S  S  S  S  S  S  S  S  S  S  S  S  S  
--------------------------------------------------|
--13-------------------13-12-------12-17-------15-|
-----14----------------------12----------17-16----|
--------14----------14----------14----------------|
-----------15-12-15-------------------------------|
--------------------------------------------------|


   S  S  S  S  S  S  S  S  S  S  S  S  S  S  S  S  
--------------------------------------------------|
--13-------------------13-12-------12-17-------15-|
-----14----------------------12----------17-16----|
--------14----------14----------14----------------|
-----------15-12-15-------------------------------|
--------------------------------------------------|


   S  S  S  S  S  S  S  S  S  S  S  S  S  S  S  S  
--------------------------------------------------|
--13-------------------13-12-------12-17-------15-|
-----14----------------------12----------17-16----|
--------14----------14----------14----------------|
-----------15-12-15-------------------------------|
--------------------------------------------------|


   S  S  S  S  S  S  S  S  S  S  S  S  S  S  S  S  
--------------------------------------------------|
--13-------------------13-12-------12-17-------15-|
-----14----------------------12----------17-16----|
--------14----------14----------14----------------|
-----------15-12-15-------------------------------|
--------------------------------------------------|


   S  S  S  S  S  S  S  S  S  S  S  S  S  S S  S  
-------------------------------------------------|
--13-------------------13-13-12-10-------13---12-|
-----14----------------------------12-10----9----|
--------14----------14---------------------------|
-----------15-12-15------------------------------|
-------------------------------------------------|


  S E.  S S S S  S S S  S S  S S S    S E.  S S S S  S S S  S  E  E   
-----------------------------------|---------------------------------|
-----------------------------------|---------------------------------|
-----------------------------------|--------------------------10--9--|
--7-----7---9---10-9-7------10---9-|--7-----7---9---10-9-7-----------|
-----------------------10-8----7---|-----------------------10--------|
-----------------------------------|---------------------------------|


  S E.  S S S S  S S S  S S  S S S    S E.  S S S S  S S S  S  E  E   
-----------------------------------|---------------------------------|
-----------------------------------|---------------------------------|
-----------------------------------|--------------------------10--9--|
--7-----7---9---10-9-7------10---9-|--7-----7---9---10-9-7-----------|
-----------------------10-8----7---|-----------------------10--------|
-----------------------------------|---------------------------------|


  S E.  S S S S  S S S  S S  S S S    S E.  S S S S  S S S  S  E  E   
-----------------------------------|---------------------------------|
-----------------------------------|---------------------------------|
-----------------------------------|--------------------------10--9--|
--7-----7---9---10-9-7------10---9-|--7-----7---9---10-9-7-----------|
-----------------------10-8----7---|-----------------------10--------|
-----------------------------------|---------------------------------|


  S E.  S S S S  S S S  S S  S S S    S E.  S S S S  S S S  S  E  E   
-----------------------------------|---------------------------------|
-----------------------------------|---------------------------------|
-----------------------------------|--------------------------10--9--|
--7-----7---9---10-9-7------10---9-|--7-----7---9---10-9-7-----------|
-----------------------10-8----7---|-----------------------10--------|
-----------------------------------|---------------------------------|


  T T T T T T T T T T T T T T T T T T T T T T T T T T T T T T T T  
------------------------------------------------------------------|
------------------------------------------------------------------|
------------------------------------------------------------------|
------------------------------------------------------------------|
--0-0-0-0-0-0-0-0-0-0-0-0-2-2-2-2-3-3-3-3-2-2-2-2-0-0-0-0---------|
----------------------------------------------------------3-3-3-3-|


  T T T T T T T T T T T T T T T T T T T T T T T T T T T T T T T T  
------------------------------------------------------------------|
------------------------------------------------------------------|
------------------------------------------------------------------|
----------3-3-3-3-2-2-2-2-0-0-0-0---------------------------------|
------------------------------------------3-3-3-3-2-2-2-2-0-0-0-0-|
--1-1-1-1-------------------------3-3-3-3-------------------------|


  T T T T T T T T T T T T T T T T T T T T T T T T T T T T T T T T  
------------------------------------------------------------------|
------------------------------------------------------------------|
------------------------------------------------------------------|
------------------------------------------------------------------|
--0-0-0-0-0-0-0-0-0-0-0-0-2-2-2-2-3-3-3-3-2-2-2-2-0-0-0-0---------|
----------------------------------------------------------3-3-3-3-|


  T T T T T T T T T T T T T T T T T T T T T T T T T T T T T T T T  
------------------------------------------------------------------|
------------------------------------------------------------------|
------------------------------------------------------------------|
----------3-3-3-3-2-2-2-2-0-0-0-0---------------------------------|
------------------------------------------3-3-3-3-2-2-2-2-0-0-0-0-|
--1-1-1-1-------------------------3-3-3-3-------------------------|


  Q.     E  E  E  E  E     S S E  E  E  S S E  E  E     Q.     E  E  E  E  E   
------------------------|----------------------------|------------------------|
------------------------|----------------------------|------------------------|
------------------------|----------------------------|------------------------|
------------------------|------3--2--0---------------|------------------------|
--0------2--3--2--0-----|-------------------3--2--0--|--0------2--3--2--0-----|
---------------------3--|--1-1----------3-3----------|---------------------3--|


  S S E  E  E  S S E  E  E     W                   W                 
----------------------------|-------------------|-------------------|
----------------------------|-------------------|-------------------|
----------------------------|-------------------|-------------------|
------3--2--0---------------|-------------------|-------------------|
-------------------3--2--0--|-------------------|-------------------|
--1-1----------3-3----------|-------------------|-------------------|


    E    Q      E    Q     S  S  S  S  
--/17--/17~----15--/17----15-13-12-13-|
--------------------------------------|
--------------------------------------|
--------------------------------------|
--------------------------------------|
--------------------------------------|


   S  S  S  S  E     S  E     S  Q.        
--12----------13b~--13-13b~--13-13b~------|
-----15-13-15-----------------------------|
------------------------------------------|
------------------------------------------|
------------------------------------------|
------------------------------------------|


   S  S  T   T   S  S  S  T   T   T   T   S  T   T   S   S  T  T  T  T  T  T  T 
--17-15-17h-20p-17-15----15h-17p-15h-17p-15-13h-15p-13p-12-13-12----------------
----------------------17-----------------------------------------15-17-15-13-12-
--------------------------------------------------------------------------------
--------------------------------------------------------------------------------
--------------------------------------------------------------------------------
--------------------------------------------------------------------------------


   S  S  T  T  T  T  T  T  T  T  E   S  S  S  E   S  E   
--------------------12-13-12-13-15----------------------|
--13-12-13-15-13-15-------------------------------------|
------------------------------------14-14-12-10--10-12--|
--------------------------------------------------------|
--------------------------------------------------------|
--------------------------------------------------------|


  S S E  E  S E  S E  E  E     S S E  E  S E  S S E  S E   
----------------------------|-----------------------------|
----------------------------|-----------------------------|
----------------------------|-----------------------------|
--2-2-5--4--5-2--2-5--4--5--|------5--4--5----------------|
--0-0-3--2--3-0--0-3--2--3--|--5-5-3--2--3-3--3-3-3--3-5--|
----------------------------|--3-3---------1--1-1-1--1-3--|


  S S E  E  S E  S E  E  E     S S E  E  S E  S S E  S E   
----------------------------|-----------------------------|
----------------------------|-----------------------------|
----------------------------|-----------------------------|
--2-2-5--4--5-2--2-5--4--5--|------5--4--5----------------|
--0-0-3--2--3-0--0-3--2--3--|--5-5-3--2--3-3--3-3-3--3-5--|
----------------------------|--3-3---------1--1-1-1--1-3--|


  S S  E  E   S E  S  E  S S  E      S  S  E  E   S E  S  S E  S  E   
---------------------------------|-----------------------------------|
---------------------------------|-----------------------------------|
---------------------------------|-----------------------------------|
--7-7-10--9--10-7--7-10--9-9-10--|--------10--9--10-7--7-------------|
---------------------------------|--10-10----------------10-8--8-10--|
---------------------------------|-----------------------------------|


  S S  E  E   S E  S  E  S S  E      S  S  E  E   S E  S  S E  S  E   
---------------------------------|-----------------------------------|
---------------------------------|-----------------------------------|
---------------------------------|-----------------------------------|
--7-7-10--9--10-7--7-10--9-9-10--|--------10--9--10-7--7-------------|
---------------------------------|--10-10----------------10-8--8-10--|
---------------------------------|-----------------------------------|


  E  S S T T S S S T T S S S T T S S S    E  S S T T S S S E  S S E  S S  
---------------------------------------|---------------------------------|
---------------------------------------|---------------------------------|
---------------------------------------|--------------------------2--2---|
--2--2---2-2-2-2---2-2-2-2---2-2-2-2---|-----2---2-2-2-2----------0--0---|
--0--0---0-0-0-0---0-0-0-0---0-0-0-0-5-|--L--0---0-0-0-0---3--3----------|
-------------------------------------3-|--L----------------1--1----------|


  E  S S T T S S S T T S S S T T S S S    E  S S T T S S S E  S S E  S S  
---------------------------------------|---------------------------------|
---------------------------------------|---------------------------------|
---------------------------------------|--------------------------2--2---|
--2--2---2-2-2-2---2-2-2-2---2-2-2-2---|-----2---2-2-2-2----------0--0---|
--0--0---0-0-0-0---0-0-0-0---0-0-0-0-5-|--L--0---0-0-0-0---3--3----------|
-------------------------------------3-|--L----------------1--1----------|


  E  S S  S S S  S E  S S  S S  S  S    E  S S  S S S  S E  S S  E   S S  
-------------------------------------|-----------------------------------|
-------------------------------------|-----------------------------------|
-----------------------------7-------|-----------------------------------|
--7----7-10-9-7----7----7-10---10----|--7----7-10-9-7--------------------|
-----7----------10----7-----------10-|-----7----------10-8--8-7--------7-|
-------------------------------------|--------------------------10--10---|


  E  S S  S S S  S E  S S  S S  S  S    E  S S  S S S  S E  S S  E   S S  
-------------------------------------|-----------------------------------|
-------------------------------------|-----------------------------------|
-----------------------------7-------|-----------------------------------|
--7----7-10-9-7----7----7-10---10----|--7----7-10-9-7--------------------|
-----7----------10----7-----------10-|-----7----------10-8--8-7--------7-|
-------------------------------------|--------------------------10--10---|


  S S S S S    S E.  S S S S  S S S  S S  S S S  
------------|-----------------------------------|
------------|-----------------------------------|
------------|-----------------------------------|
--2---2-2-2-|--7-----7---9---10-9-7------10---9-|
--0---0-0-0-|-----------------------10-8----7---|
------------|-----------------------------------|


  S E.  S S S S  S S S  S  E  E     S E.  S S S S  S S S  S S  S S S  
---------------------------------|-----------------------------------|
---------------------------------|-----------------------------------|
--------------------------10--9--|-----------------------------------|
--7-----7---9---10-9-7-----------|--7-----7---9---10-9-7------10---9-|
-----------------------10--------|-----------------------10-8----7---|
---------------------------------|-----------------------------------|


  S E.  S S S S  S S S  S  E  E     S E.  S S S S  S S S  S S  S S S  
---------------------------------|-----------------------------------|
---------------------------------|-----------------------------------|
--------------------------10--9--|-----------------------------------|
--7-----7---9---10-9-7-----------|--7-----7---9---10-9-7------10---9-|
-----------------------10--------|-----------------------10-8----7---|
---------------------------------|-----------------------------------|


  S E.  S S S S  S S S  S  E  E     S E.  S S S S  S S S  S S  S S S  
---------------------------------|-----------------------------------|
---------------------------------|-----------------------------------|
--------------------------10--9--|-----------------------------------|
--7-----7---9---10-9-7-----------|--7-----7---9---10-9-7------10---9-|
-----------------------10--------|-----------------------10-8----7---|
---------------------------------|-----------------------------------|


  S E.  S S S S  S S S  S  E  E   
---------------------------------|
---------------------------------|
--------------------------10--9--|
--7-----7---9---10-9-7-----------|
-----------------------10--------|
---------------------------------|


  T T T T T T T T T T T T T T T T T T T T T T T T T T T T T T T T  
------------------------------------------------------------------|
------------------------------------------------------------------|
------------------------------------------------------------------|
------------------------------------------------------------------|
--0-0-0-0-0-0-0-0-0-0-0-0-2-2-2-2-3-3-3-3-2-2-2-2-0-0-0-0---------|
----------------------------------------------------------3-3-3-3-|


  T T T T T T T T T T T T T T T T T T T T T T T T T T T T T T T T  
------------------------------------------------------------------|
------------------------------------------------------------------|
------------------------------------------------------------------|
----------3-3-3-3-2-2-2-2-0-0-0-0---------------------------------|
------------------------------------------3-3-3-3-2-2-2-2-0-0-0-0-|
--1-1-1-1-------------------------3-3-3-3-------------------------|


  T T T T T T T T T T T T T T T T T T T T T T T T T T T T T T T T  
------------------------------------------------------------------|
------------------------------------------------------------------|
------------------------------------------------------------------|
------------------------------------------------------------------|
--0-0-0-0-0-0-0-0-0-0-0-0-2-2-2-2-3-3-3-3-2-2-2-2-0-0-0-0---------|
----------------------------------------------------------3-3-3-3-|


  T T T T T T T T T T T T T T T T T T T T T T T T T T T T T T T T  
------------------------------------------------------------------|
------------------------------------------------------------------|
------------------------------------------------------------------|
----------3-3-3-3-2-2-2-2-0-0-0-0---------------------------------|
------------------------------------------3-3-3-3-2-2-2-2-0-0-0-0-|
--1-1-1-1-------------------------3-3-3-3-------------------------|


  Q.     E  E  E  E  E     S S E  E  E  S S E  E  E     Q.     E  E  E  E  E   
------------------------|----------------------------|------------------------|
------------------------|----------------------------|------------------------|
------------------------|----------------------------|------------------------|
------------------------|------3--2--0---------------|------------------------|
--0------2--3--2--0-----|-------------------3--2--0--|--0------2--3--2--0-----|
---------------------3--|--1-1----------3-3----------|---------------------3--|


  S S E  E  E  S S E  E  E     S S E  E  S E  S E  E  E   
----------------------------|----------------------------|
----------------------------|----------------------------|
----------------------------|----------------------------|
------3--2--0---------------|--2-2-5--4--5-2--2-5--4--5--|
-------------------3--2--0--|--0-0-3--2--3-0--0-3--2--3--|
--1-1----------3-3----------|----------------------------|


  S S E  E  S E  S S E  S E     S S E  E  S E  S E  E  E   
-----------------------------|----------------------------|
-----------------------------|----------------------------|
-----------------------------|----------------------------|
------5--4--5----------------|--2-2-5--4--5-2--2-5--4--5--|
--5-5-3--2--3-3--3-3-3--3-5--|--0-0-3--2--3-0--0-3--2--3--|
--3-3---------1--1-1-1--1-3--|----------------------------|


  S S E  E  S E  S S E  S E     S S  E  E   S E  S  E  S S  E   
-----------------------------|---------------------------------|
-----------------------------|---------------------------------|
-----------------------------|---------------------------------|
------5--4--5----------------|--7-7-10--9--10-7--7-10--9-9-10--|
--5-5-3--2--3-3--3-3-3--3-5--|---------------------------------|
--3-3---------1--1-1-1--1-3--|---------------------------------|


   S  S  E  E   S E  S  S E  S  E     S S  E  E   S E  S  E  S S  E   
-----------------------------------|---------------------------------|
-----------------------------------|---------------------------------|
-----------------------------------|---------------------------------|
--------10--9--10-7--7-------------|--7-7-10--9--10-7--7-10--9-9-10--|
--10-10----------------10-8--8-10--|---------------------------------|
-----------------------------------|---------------------------------|


   S  S  E  E   S E  S  S E  S  E     W                    W                 
-----------------------------------|--------------------|-------------------|
-----------------------------------|--------------------|-------------------|
-----------------------------------|--2~----------------|--L----------------|
--------10--9--10-7--7-------------|--------------------|-------------------|
--10-10----------------10-8--8-10--|--------------------|-------------------|
-----------------------------------|--------------------|-------------------|


  T T T T T T T T T T T T T T T T H                             
-------------------------------------------|-------------------|
-------------------------------------------|-------------------|
--L-L-L-L-L-L-L-L-L-L-L-L-L-L-L-L----------|-------------------|
-------------------------------------------|-------------------|
-------------------------------------------|-------------------|
-------------------------------------------|-------------------|


   S  S  S  S  S  S  S  S  S  S  S  S  S  S  S  S  
--------------------------------------------------|
--13-------------------13-12-------12-17-------15-|
-----14----------------------12----------17-16----|
--------14----------14----------14----------------|
-----------15-12-15-------------------------------|
--------------------------------------------------|


   S  S  S  S  S  S  S  S  S  S  S  S  S  S  S  S  
--------------------------------------------------|
--13-------------------13-12-------12-17-------15-|
-----14----------------------12----------17-16----|
--------14----------14----------14----------------|
-----------15-12-15-------------------------------|
--------------------------------------------------|


   S  S  S  S  S  S  S  S  S  S  S  S  S  S  S  S  
--------------------------------------------------|
--13-------------------13-12-------12-17-------15-|
-----14----------------------12----------17-16----|
--------14----------14----------14----------------|
-----------15-12-15-------------------------------|
--------------------------------------------------|


   S  S  S  S  S  S  S  S  S  S  S  S  S  S  S  S  
--------------------------------------------------|
--13-------------------13-12-------12-17-------15-|
-----14----------------------12----------17-16----|
--------14----------14----------14----------------|
-----------15-12-15-------------------------------|
--------------------------------------------------|


   S  S  S  S  S  S  S  S  S  S  S  S  S  S  S  S  
--------------------------------------------------|
--13-------------------13-12-------12-17-------15-|
-----14----------------------12----------17-16----|
--------14----------14----------14----------------|
-----------15-12-15-------------------------------|
--------------------------------------------------|


   S  S  S  S  S  S  S  S  S  S  S  S  S  S  S  S  
--------------------------------------------------|
--13-------------------13-12-------12-17-------15-|
-----14----------------------12----------17-16----|
--------14----------14----------14----------------|
-----------15-12-15-------------------------------|
--------------------------------------------------|


   S  S  S  S  S  S  S  S  S  S  S  S  S  S  S  S  
--------------------------------------------------|
--13-------------------13-12-------12-17-------15-|
-----14----------------------12----------17-16----|
--------14----------14----------14----------------|
-----------15-12-15-------------------------------|
--------------------------------------------------|


   S  S  S  S  S  S  S  S  S  S  S  S  S  S  S  S    W                  
--------------------------------------------------|--------------------|
--13-------------------13-12-------12-17-------15-|--------------------|
-----14----------------------12----------17-16----|--------------------|
--------14----------14----------14----------------|--7~----------------|
-----------15-12-15-------------------------------|--------------------|
--------------------------------------------------|--------------------|


   S  S  S  S  S  S  S  S  S  S  S  S  S  S  S  S    H           H         
--------------------------------------------------|--5\--------/10--------|
--------------------12-13-15-13-12----------------|-----------------------|
-----------10-13-14----------------13-------------|-----------------------|
--10-12-14----------------------------15-14-12-15-|-----------------------|
--------------------------------------------------|-----------------------|
--------------------------------------------------|-----------------------|


  S S  S S S  S S S S S S S Q      
----------------------------------|
----------------------------------|
---------9-8----------------------|
------10-----10-9-7-9-7-6-7-9~----|
--7-8-----------------------------|
----------------------------------|


   S  S  S  S  S  S  S  S  S  S  S  S  S  S  S  S  
--------------------------------------------------|
--13-------------------13-12-------12-17-------15-|
-----14----------------------12----------17-16----|
--------14----------14----------14----------------|
-----------15-12-15-------------------------------|
--------------------------------------------------|


                                       PH    
          |---3---|                          
   Q      E   E   E   T  T  S  S  S    Q     
--------------------------------------------|
--13b----15--13--12-----------------<>15----|
---------------------14-16-14-13-14---------|
--------------------------------------------|
--------------------------------------------|
--------------------------------------------|


  |--3-| |--3-| |--3-| |-3-| |--3-| |-3-| |--3-| |--3-|  
  S S  S S  S S S S  S S S S S  S S S S S S S  S S  S S  
--------------------------------------------------------|
--------------------------------------------------------|
---------7------9-7----7----------7-9-7-9-9-7---------7-|
--7-9-10---10-9-----10---9-7-9-10-------------10-9-10---|
--------------------------------------------------------|
--------------------------------------------------------|


  |--3-| |--3--|  |-3-|  |-3-| |-3-|  |--3-|  |--3-|     
  S  S S S  S  S  S S S  S S S S S S  S S  S  S S  S E   
--------------------------------------------------------|
--------------------------------------------------------|
-------7-9-11-12-11-9-7----7-9-7-9-7----7-------7-------|
--9-10------------------11-----------10---10-10---10-7--|
--------------------------------------------------------|
--------------------------------------------------------|


  |--3-| |--3-| |--3-| |--3-|  |--3-|  |--3-|  |--3--|  |--3-|  
  S S  S S  S S S S  S S S  S  S  S S  S  S S  S  S  S  S  S S  
------------------------------12-10-8--------------------------|
--------------------------------------12-10-8-13-12-10---------|
--------------7-9-7----7-9-10--------------------------12-10-9-|
--7-9-10-9-10-------10-----------------------------------------|
---------------------------------------------------------------|
---------------------------------------------------------------|


   |--3--|  |--3--|  |--3--|  |--3--|  |--3--|  |--3--|        
   S  S  S  S  S  S  S  S  S  S  S  S  S  S  S  S  S  S  Q     
--------------------------19-20-22-24-22-20-19----------------|
-----------15-17-18-20-22----------------------22-20----------|
--14-16-17-------------------------------------------19-------|
--------------------------------------------------------19----|
--------------------------------------------------------------|
--------------------------------------------------------------|


  E  S S T T S S S T T S S S T T S S S    E  S S T T S S S E  S S E  S S  
---------------------------------------|---------------------------------|
---------------------------------------|---------------------------------|
---------------------------------------|--------------------------2--2---|
--2--2---2-2-2-2---2-2-2-2---2-2-2-2---|-----2---2-2-2-2----------0--0---|
--0--0---0-0-0-0---0-0-0-0---0-0-0-0-5-|--L--0---0-0-0-0---3--3----------|
-------------------------------------3-|--L----------------1--1----------|


  E  S S T T S S S T T S S S T T S S S    E  S S T T S S S E  S S E  S S  
---------------------------------------|---------------------------------|
---------------------------------------|---------------------------------|
---------------------------------------|--------------------------2--2---|
--2--2---2-2-2-2---2-2-2-2---2-2-2-2---|-----2---2-2-2-2----------0--0---|
--0--0---0-0-0-0---0-0-0-0---0-0-0-0-5-|--L--0---0-0-0-0---3--3----------|
-------------------------------------3-|--L----------------1--1----------|


  E  S S  S S S  S E  S S  S S  S  S    E  S S  S S S  S E  S S  E   S S  
-------------------------------------|-----------------------------------|
-------------------------------------|-----------------------------------|
-----------------------------7-------|-----------------------------------|
--7----7-10-9-7----7----7-10---10----|--7----7-10-9-7--------------------|
-----7----------10----7-----------10-|-----7----------10-8--8-7--------7-|
-------------------------------------|--------------------------10--10---|


  E  S S  S S S  S E  S S  S S  S  S    E  S S  S S S  S E  S S  E   S S  
-------------------------------------|-----------------------------------|
-------------------------------------|-----------------------------------|
-----------------------------7-------|-----------------------------------|
--7----7-10-9-7----7----7-10---10----|--7----7-10-9-7--------------------|
-----7----------10----7-----------10-|-----7----------10-8--8-7--------7-|
-------------------------------------|--------------------------10--10---|


  S S S S S    S E.  S S S S  S S S  S S  S S S  
------------|-----------------------------------|
------------|-----------------------------------|
------------|-----------------------------------|
--2---2-2-2-|--7-----7---9---10-9-7------10---9-|
--0---0-0-0-|-----------------------10-8----7---|
------------|-----------------------------------|


  S E.  S S S S  S S S  S  E  E     S E.  S S S S  S S S  S S  S S S  
---------------------------------|-----------------------------------|
---------------------------------|-----------------------------------|
--------------------------10--9--|-----------------------------------|
--7-----7---9---10-9-7-----------|--7-----7---9---10-9-7------10---9-|
-----------------------10--------|-----------------------10-8----7---|
---------------------------------|-----------------------------------|


  S E.  S S S S  S S S  S  E  E     S E.  S S S S  S S S  S S  S S S  
---------------------------------|-----------------------------------|
---------------------------------|-----------------------------------|
--------------------------10--9--|-----------------------------------|
--7-----7---9---10-9-7-----------|--7-----7---9---10-9-7------10---9-|
-----------------------10--------|-----------------------10-8----7---|
---------------------------------|-----------------------------------|


  S E.  S S S S  S S S  S  E  E     S E.  S S S S  S S S  S S  S S S  
---------------------------------|-----------------------------------|
---------------------------------|-----------------------------------|
--------------------------10--9--|-----------------------------------|
--7-----7---9---10-9-7-----------|--7-----7---9---10-9-7------10---9-|
-----------------------10--------|-----------------------10-8----7---|
---------------------------------|-----------------------------------|


  S E.  S S S S  S S S  S  E  E   
---------------------------------|
---------------------------------|
--------------------------10--9--|
--7-----7---9---10-9-7-----------|
-----------------------10--------|
---------------------------------|


  T T T T T T T T T T T T T T T T T T T T T T T T T T T T T T T T  
------------------------------------------------------------------|
------------------------------------------------------------------|
------------------------------------------------------------------|
------------------------------------------------------------------|
--0-0-0-0-0-0-0-0-0-0-0-0-2-2-2-2-3-3-3-3-2-2-2-2-0-0-0-0---------|
----------------------------------------------------------3-3-3-3-|


  T T T T T T T T T T T T T T T T T T T T T T T T T T T T T T T T  
------------------------------------------------------------------|
------------------------------------------------------------------|
------------------------------------------------------------------|
----------3-3-3-3-2-2-2-2-0-0-0-0---------------------------------|
------------------------------------------3-3-3-3-2-2-2-2-0-0-0-0-|
--1-1-1-1-------------------------3-3-3-3-------------------------|


  T T T T T T T T T T T T T T T T T T T T T T T T T T T T T T T T  
------------------------------------------------------------------|
------------------------------------------------------------------|
------------------------------------------------------------------|
------------------------------------------------------------------|
--0-0-0-0-0-0-0-0-0-0-0-0-2-2-2-2-3-3-3-3-2-2-2-2-0-0-0-0---------|
----------------------------------------------------------3-3-3-3-|


  T T T T T T T T T T T T T T T T T T T T T T T T T T T T T T T T  
------------------------------------------------------------------|
------------------------------------------------------------------|
------------------------------------------------------------------|
----------3-3-3-3-2-2-2-2-0-0-0-0---------------------------------|
------------------------------------------3-3-3-3-2-2-2-2-0-0-0-0-|
--1-1-1-1-------------------------3-3-3-3-------------------------|


  T T T T T T T T T T T T T T T T T T T T T T T T T T T T T T T T  
------------------------------------------------------------------|
------------------------------------------------------------------|
------------------------------------------------------------------|
------------------------------------------------------------------|
--0-0-0-0-0-0-0-0-0-0-0-0-2-2-2-2-3-3-3-3-2-2-2-2-0-0-0-0---------|
----------------------------------------------------------3-3-3-3-|


  T T T T T T T T T T T T T T T T T T T T T T T T T T T T T T T T  
------------------------------------------------------------------|
------------------------------------------------------------------|
------------------------------------------------------------------|
----------3-3-3-3-2-2-2-2-0-0-0-0---------------------------------|
------------------------------------------3-3-3-3-2-2-2-2-0-0-0-0-|
--1-1-1-1-------------------------3-3-3-3-------------------------|


  T T T T T T T T T T T T T T T T T T T T T T T T T T T T T T T T  
------------------------------------------------------------------|
------------------------------------------------------------------|
------------------------------------------------------------------|
------------------------------------------------------------------|
--0-0-0-0-0-0-0-0-0-0-0-0-2-2-2-2-3-3-3-3-2-2-2-2-0-0-0-0---------|
----------------------------------------------------------3-3-3-3-|


  H        H           W                                      
--------------------|-------------------|-------------------||
--------------------|-------------------|-------------------||
--------------------|-------------------|-------------------||
--------------------|-------------------|-------------------||
--3--------5--------|--7----------------|-------------------||
--1--------3--------|--5----------------|-------------------||




Duration Legend
---------------
W - whole
H - half
Q - quarter
E - 8th
S - 16th
T - 32nd
X - 64th
. - note dotted
|-n-|  - n-tuplets


Tablature Legend
----------------
L - tied note
x - dead note
g - grace note
(n) - ghost note
> - accentuded note
NH - natural harmonic
AH - artificial harmonic
TH - tapped harmonic
SH - semi harmonic
PH - pitch harmonic
h - hammer on
p - pull off
b - bend
br - bendRelease
pb - preBend
pbr - preBendRelease
brb - bendReleaseBend
\n/ - tremolo bar dip
\n - tremolo bar dive
-/n - tremolo bar Release up
/n\ - tremolo bar inverted dip
/n - tremolo bar return
-\n - tremolo bar Release down
S - shift slide
s - legato slide
/ -  slide into from below or out of upwards
\ -  slide into from above or out of downwards
~ - vibrato
W - wide vibrato
tr - trill
TP - tremolo picking
T - tapping
S - slap
P - pop
< - fade in
^ - brush up
v - brush down
comments
We did not receive enough feedback on this tab! Please rate:
print report bad tab
1 2 3 4 5
1 comment total.
0 reply
NecroComet wrote on August 11 2013, 12:46 am

this tab is really hard to follow i need the time when the riffs are played

I want to post or [tab]
guest
You may want to rate the tab now too:
select rating
Please do not post tabs as comments. Select "correction" instead!