Oops, an error
Loading. Please wait.

Dust In The Wind Tab

ver5
ver5
More versions @911Tabs.com
13,088 views 27 this week
no commentswrite comment
1 2 3 4 5
worth learning
x 3
Autoscroll
+/-
esc
set tempo
stop
Contributor
Difficulty
advanced
WARNING: You are trying to view
                                    content from Ultimate-Guitar.com
                                    in an unauthorized application,
                                    which is prohibited.

                                    Please use an official Ultimate
                                    Guitar Tabs application for iPhone,
                                    iPad or Android to access legitimate
                                    chords, guitar, bass, and drum tabs
                                    from Ultimate-Guitar.com database.

                                    Type "ultimate guitar tabs" in Apple
                                    App Store's or Android Market's
                                    search to find the application.
Dust In The Wind By Kansas

Guitar 2
Turning : Standard


-------3-L-----3-L----3-L-----3-|--L----3-L-----3-L----3-L-----3---|
--1--------1-----0--------0-----|--3--------3-----1--------1-------|
--------------------------------|----------------------------------|
-----2-------2------2-------2---|-----2-------2------2-------2-----|
--3------3-------3------3-------|--3------3-------3------3---------|
--------------------------------|----------------------------------|


-------5-L-----5-L----5-L-----5-|--L----5-L-----5-L----5-L-----5-|
--0--------3-----3--------3-----|--------------------------0-----|
--------------------------------|--5--------5-----4--------------|
-----2-------2------2-------2---|-----2-------2------2-------2---|
--0------0-------0------0-------|--0------0-------0------0-------|
--------------------------------|--------------------------------|


--L----3-L-----3-L----3-L-----3-|--L----3-L-----3-L----3-L-----3---|
--3--------3-----1--------1-----|--0--------0-----3--------3-------|
--------------------------------|----------------------------------|
-----2-------2------2-------2---|-----2-------2------2-------2-----|
--3------3-------3------3-------|--3------3-------3------3---------|
--------------------------------|----------------------------------|


-------5-L-----5-L----5-L-----5-|--L----5-L-----5-L------------|
--------------------------0-----|--3--------3-----1------1--3--|
--5--------5-----4--------------|----------------------2----0--|
-----2-------2------2-------2---|-----2-------2------2---------|
--0------0-------0------0-------|--0------0-------0------0--2--|
--------------------------------|------------------------------|


-------3-L-----3-L----3-L-----3-|--L----5-L-----5-L----5-L-------|
--1--------1-----3--------3-----|--------------------------------|
--------------------------------|-----------5-----5--------5---0-|
-----2-------2------0-------0---|-----2-------2------2-------2---|
--3------3-------2------2-------|--0------0-------0------0-------|
--------------------------------|--------------------------------|


-------3-L-----3-1--------1------|-------5-L-----5-L------------|
--0--------0----------1----------|------------------------1--3--|
--------------------2-------2p-0-|-----------5-----5----2----0--|
-----0-------0---0------0--------|-----2-------2------2---------|
---------------------------------|--0------0-------0------0--2--|
--3------3-----------------------|------------------------------|


-------3-L-----3-L----3-L-----3-|--L----5-L-----5-L----5-L-------|
--1--------1-----3--------3-----|--------------------------------|
--------------------------------|-----------5-----5--------5---0-|
-----2-------2------0-------0---|-----2-------2------2-------2---|
--3------3-------2------2-------|--0------0-------0------0-------|
--------------------------------|--------------------------------|


-------3-L-----3-1--------1-L----|-------5-L-----5-L----5-L--------|
--0--------0----------1----------|---------------------------------|
--------------------2-------2p-0-|-----------5-----5--------5------|
-----0-------0---0------0--------|-----2-------2------2-------2p-0-|
---------------------------------|--0------0-------0------0--------|
--3------3-----------------------|---------------------------------|


-------5-L---2h-3------3-L--------|-------5-L-----5-L----5-L--------|
--3---------------0--------0------|---------------------------------|
-----2-----2----------------------|-----------5-----5--------5----2-|
---------------------0------------|-----2-------2------2-------2p-0-|
-----------------------------2p-0-|--0------0-----------------------|
--2------2--------3------3--------|-----------------3------3--------|


-------5-L---2h-3------3-L--------|-------5-L-----5-L-----------|
--3---------------0--------0------|--0--------0-----0h-1---3----|
-----2-----2----------------------|------------------------0----|
---------------------0------------|-----2-------2---------------|
-----------------------------2p-0-|--0------0-------0------2----|
--2------2--------3------3--------|-----------------------------|


-------3-L-----3-L----3-L-----3-|--L----5-L-----5-L----5-L-------|
--1--------1-----3--------3-----|--------------------------------|
--------------------------------|-----------5-----5--------5---0-|
-----2-------2------0-------0---|-----2-------2------2-------2---|
--3------3-------2------2-------|--0------0-------0------0-------|
--------------------------------|--------------------------------|


-------3-L-----3-1--------1------|-------5-L-----5-L------------|
--0--------0----------1----------|------------------------1--3--|
--------------------2-------2p-0-|-----------5-----5----2----0--|
-----0-------0---0------0--------|-----2-------2------2---------|
---------------------------------|--0------0-------0------0--2--|
--3------3-----------------------|------------------------------|


-------3-L-----3-L----3-L-----3-|--L----5-L-----5-L----5-L-------|
--1--------1-----3--------3-----|--------------------------------|
--------------------------------|-----------5-----5--------5---0-|
-----2-------2------0-------0---|-----2-------2------2-------2---|
--3------3-------2------2-------|--0------0-------0------0-------|
--------------------------------|--------------------------------|


-------3-L-----3-1--------1-L----|-------5-L-----5-L----5-L--------|
--0--------0----------1----------|---------------------------------|
--------------------2-------2p-0-|-----------5-----5--------5------|
-----0-------0---0------0--------|-----2-------2------2-------2p-0-|
---------------------------------|--0------0-------0------0--------|
--3------3-----------------------|---------------------------------|


-------5-L---2h-3------3-L--------|-------5-L-----5-L----5-L--------|
--3---------------0--------0------|---------------------------------|
-----2-----2----------------------|-----------5-----5--------5----2-|
---------------------0------------|-----2-------2------2-------2p-0-|
-----------------------------2p-0-|--0------0-----------------------|
--2------2--------3------3--------|-----------------3------3--------|


-------5-L---2h-3------3-L--------|-------8-L-----8-L----8-L-----8-|
--3---------------0--------0------|-----------0-----0--------0-----|
-----2-----2----------------------|--------------------------------|
---------------------0------------|-----7-------7------7-------7---|
-----------------------------2p-0-|--0------0-------0------0-------|
--2------2--------3------3--------|--------------------------------|


-------10-L-----10-L----10-L-----10-|--L-----8-L------8-L-----8-L------8-|
--0---------0------0---------0------|------------0------0---------0------|
-----0--------0-------0--------0----|-----10-------10------10-------10---|
------------------------------------|------------------------------------|
--0-------0--------0-------0--------|--0-------0--------0-------0--------|
------------------------------------|------------------------------------|


--L----8-L-----8-L-----8-L------8-|-------8-L-----8-L----8-L-----8-|
-----------------0---------0------|-----------0-----0--------0-----|
--7--------7--------10-------10---|--------------------------------|
----------------------------------|-----7-------7------7-------7---|
--0--8---0---8---0-------0--------|--0------0-------0------0-------|
----------------------------------|--------------------------------|


-------10-L-----10-L----10-L-----10-|--L-----8-L------8-L-----8-L------8-|
--0---------0------0---------0------|------------0------0---------0------|
-----0--------0-------0--------0----|-----10-------10------10-------10---|
------------------------------------|------------------------------------|
--0-------0--------0-------0--------|--0-------0--------0-------0--------|
------------------------------------|------------------------------------|


--L----8-L-----8-L-----8-L------8-|-------8-L-----8-L----8-L-----8-|
-----------------0---------0------|-----------0-----0--------0-----|
--7--------7--------10-------10---|--------------------------------|
----------------------------------|-----7-------7------7-------7---|
--0--8---0---8---0-------0--------|--0------0-------0------0-------|
----------------------------------|--------------------------------|


-------10-L-----10-L----10-L-----10-|--L-----8-L------8-L-----8-L------8-|
--0---------0------0---------0------|------------0------0---------0------|
-----0--------0-------0--------0----|-----10-------10------10-------10---|
------------------------------------|------------------------------------|
--0-------0--------0-------0--------|--0-------0--------0-------0--------|
------------------------------------|------------------------------------|


--L----8-L-----8-L-----8-L------8-|-------3-L-----3-L----3-L-----3-|
-----------------0---------0------|--1--------1-----0--------0-----|
--7--------7--------10-------10---|--------------------------------|
----------------------------------|-----2-------2------2-------2---|
--0--8---0---8---0-------0--------|--3------3-------3------3-------|
----------------------------------|--------------------------------|


--L----3-L-----3-L----3-L-----3---|-------5-L-----5-L----5-L-----5-|
--3--------3-----1--------1-------|--0--------3-----3--------3-----|
----------------------------------|--------------------------------|
-----2-------2------2-------2-----|-----2-------2------2-------2---|
--3------3-------3------3---------|--0------0-------0------0-------|
----------------------------------|--------------------------------|


--L----5-L-----5-L----5-L-----5-|--L----3-L-----3-L----3-L-----3-|
--------------------------0-----|--3--------3-----1--------1-----|
--5--------5-----4--------------|--------------------------------|
-----2-------2------2-------2---|-----2-------2------2-------2---|
--0------0-------0------0-------|--3------3-------3------3-------|
--------------------------------|--------------------------------|


--L----3-L-----3-L----3-L-----3---|-------5-L-----5-L----5-L-----5-|
--0--------0-----3--------3-------|--------------------------0-----|
----------------------------------|--5--------5-----4--------------|
-----2-------2------2-------2-----|-----2-------2------2-------2---|
--3------3-------3------3---------|--0------0-------0------0-------|
----------------------------------|--------------------------------|


--L----5-L-----5-L------------|-------3-L-----3-L----3-L-----3-|
--3--------3-----1------1--3--|--1--------1-----3--------3-----|
----------------------2----0--|--------------------------------|
-----2-------2------2---------|-----2-------2------0-------0---|
--0------0-------0------0--2--|--3------3-------2------2-------|
------------------------------|--------------------------------|


--L----5-L-----5-L----5-L-------|-------3-L-----3-1--------1------|
--------------------------------|--0--------0----------1----------|
-----------5-----5--------5---0-|--------------------2-------2p-0-|
-----2-------2------2-------2---|-----0-------0---0------0--------|
--0------0-------0------0-------|---------------------------------|
--------------------------------|--3------3-----------------------|


-------5-L-----5-L--------------|-------3-L-----3-L----3-L-----3-|
------------------------1---3---|--1--------1-----3--------3-----|
-----------5-----5----2-----0---|--------------------------------|
-----2-------2------2-----------|-----2-------2------0-------0---|
--0------0-------0------0---2---|--3------3-------2------2-------|
--------------------------------|--------------------------------|


--L----5-L-----5-L----5-L-------|-------3-L-----3-1--------1-L----|
--------------------------------|--0--------0----------1----------|
-----------5-----5--------5---0-|--------------------2-------2p-0-|
-----2-------2------2-------2---|-----0-------0---0------0--------|
--0------0-------0------0-------|---------------------------------|
--------------------------------|--3------3-----------------------|


-------5-L-----5-L----5-L--------|-------5-L---2h-3------3-L--------|
---------------------------------|--3---------------0--------0------|
-----------5-----5--------5------|-----2-----2----------------------|
-----2-------2------2-------2p-0-|---------------------0------------|
--0------0-------0------0--------|-----------------------------2p-0-|
---------------------------------|--2------2--------3------3--------|


-------5-L-----5-L----5-L--------|-------5-L---2h-3------3-L--------|
---------------------------------|--3---------------0--------0------|
-----------5-----5--------5----2-|-----2-----2----------------------|
-----2-------2------2-------2p-0-|---------------------0------------|
--0------0-----------------------|-----------------------------2p-0-|
-----------------3------3--------|--2------2--------3------3--------|


-------5-L-----5-L----5-L--------|-------5-L---2h-3------3-L--------|
---------------------------------|--3---------------0--------0------|
-----------5-----5--------5----2-|-----2-----2----------------------|
-----2-------2------2-------2p-0-|---------------------0------------|
--0------0-----------------------|-----------------------------2p-0-|
-----------------3------3--------|--2------2--------3------3--------|


-------5-L-----5-L----5-L--------|-------5-L---2h-3------3-L--------|
---------------------------------|--3---------------0--------0------|
-----------5-----5--------5----2-|-----2-----2----------------------|
-----2-------2------2-------2p-0-|---------------------0------------|
--0------0-----------------------|-----------------------------2p-0-|
-----------------3------3--------|--2------2--------3------3--------|


-------5-L-----5-L----5-L-----5-|-------5-L-----5-L----5-L-----5-|
--------------------------------|--3--------3--------------------|
-----------5-----4--------4-----|-----------------5--------5-----|
-----2-------2------2-------2---|-----2-------2------2-------2---|
--0------0-------0------0-------|--0------0-------0------0-------|
--------------------------------|--------------------------------|


--L----5-L-----5-L----5-L-----5-|--L----5-L-----5-L----5-L-----5-|
-----------------3--------3-----|--------------------------------|
--4--------4--------------------|--5--------5-----4--------4-----|
-----2-------2------2-------2---|-----2-------2------2-------2---|
--0------0-------0------0-------|--0------0-------0------0-------|
--------------------------------|--------------------------------|


--L----5-L-----5-L----5-L-----5-|--L----5-L-----5-L----5-L-----5-|
--3--------3--------------------|-----------0-----3--------3-----|
-----------------5--------5-----|--4-----------------------------|
-----2-------2------2-------2---|-----2-------2------2-------2---|
--0------0-------0------0-------|--0------0-------0------0-------|
--------------------------------|--------------------------------|


--L----5-L-----5-L----5-L-----5-|--L----5-L-----5-L----5-L-----5-|
--------------------------------|--3--------3--------------------|
--5--------5-----4--------4-----|-----------------5--------5-----|
-----2-------2------2-------2---|-----2-------2------2-------2---|
--0------0-------0------0-------|--0------0-------0------0-------|
--------------------------------|--------------------------------|


--L----5-L-----5-L----5-L-----5-|--L----5-L-----5-L----5-L-----5-|
-----------0-----3--------3-----|--------------------------------|
--4-----------------------------|--5--------5-----4--------4-----|
-----2-------2------2-------2---|-----2-------2------2-------2---|
--0------0-------0------0-------|--0------0-------0------0-------|
--------------------------------|--------------------------------|


--L----5-L-----5-L----5-L-----5-|--L----5-L-----5-L----5-L-----5-|
--3--------3--------------------|-----------0-----3--------3-----|
-----------------5--------5-----|--4-----------------------------|
-----2-------2------2-------2---|-----2-------2------2-------2---|
--0------0-------0------0-------|--0------0-------0------0-------|
--------------------------------|--------------------------------|


--5----------------||
--0----------------||
--2----------------||
--2----------------||
--0----------------||
-------------------||



comments
We did not receive enough feedback on this tab! Please rate:
print report bad tab
1 2 3 4 5
I want to post or [tab]
guest
You may want to rate the tab now too:
select rating
Please do not post tabs as comments. Select "correction" instead!