Oops, an error
Loading. Please wait.

E Mi Mancherai Tab

1,267 views 3 this week
no commentswrite comment
1 2 3 4 5
please rate
Autoscroll
+/-
esc
set tempo
stop
Contributor
Difficulty
intermediate
WARNING: You are trying to view
                                    content from Ultimate-Guitar.com
                                    in an unauthorized application,
                                    which is prohibited.

                                    Please use an official Ultimate
                                    Guitar Tabs application for iPhone,
                                    iPad or Android to access legitimate
                                    chords, guitar, bass, and drum tabs
                                    from Ultimate-Guitar.com database.

                                    Type "ultimate guitar tabs" in Apple
                                    App Store's or Android Market's
                                    search to find the application.
  E Mi Mancherai
(Karma Connection)
band offical site: http://www.karmaconnection.net/
____________________________________________________________________________________________
Tabbed by masho90@libero.it



Intro:

   Dm                Dm                Bbm6              A
e|-------1-0-1-----|-------1-0-1-----|-------1-0-1-----|---------5-------|
B|-----3-------3---|-----3-------3---|-----2-------2---|-------5---5-----|
G|---2-----------2-|---2-----------2-|---0-----------0-|-----6-------6---|
D|-0---------------|-0---------------|-----------------|---7-----------7-|
A|-----------------|-----------------|-1---------------|-0---------------|
E|-----------------|-----------------|-----------------|-----------------|



Verse 1:

   Dm                Dm                Bbm6              A
e||-------1-0-1-----|-------1-0-1-----|-------1-0-1-----|---------5-------||
B||-----3-------3---|-----3-------3---|-----2-------2---|-------5---5-----||
G||---2-----------2-|---2-----------2-|---0-----------0-|-----6-------6---|| (x4)
D||-0---------------|-0---------------|-----------------|---7-----------7-||
A||-----------------|-----------------|-1---------------|-0---------------||
E||-----------------|-----------------|-----------------|-----------------||

   G                 D                 A9                A9
e|-3-------3-----3-|-2-------0h2-----|-0---------------|-----------------|
B|-3---------3-----|-3-----------3---|-0-------0-----0-|-----0---0h2-----|
G|-0-----------0---|-2-------------2-|-2---------2-----|-2-----2-----2---|
D|-0---------------|-0---------------|-2-----------2---|---2-----------2-|
A|-2---------------|-----------------|-0-----0---------|-----------------|
E|-3---------------|-----------------|-----------------|-----------------|

   G                 D                 A9                A9
e|-3-------3-----3-|-2-------0h2-----|-0---------------|-----------------|
B|-3---------3-----|-3-----------3---|-0-------0-----0-|---2-----2-------|
G|-0-----------0---|-2-------------2-|-2---------2-----|-----2-----------|
D|-0---------------|-0---------------|-2-----------2---|-------2---------|
A|-2---------------|-----------------|-0-----0---------|------------0h2p0|
E|-3---------------|-----------------|-----------------|-----------------|

   Em                Bm                D                 A
e|---------0-------|---------2-------|-----------------|-0-------0-------|
B|---------0-------|---------3-------|-----------------|-2---2---2-------|
G|---------0-------|-4-------4-------|-7-----7-7---7\--|-2---2---2-------|
D|---------2-------|-4-------4-------|-7---7-7-7---7\--|-2---2---2-------|
A|---------2-------|-2-------2-------|-5---5-5-5---5\--|-0---0---0--0h2p0|
E|-0-------0-------|-----------------|-----------------|-----------------|

   Em                Bm                D                 A
e|---------0-------|---------2-------|-----------------|-0-------0-------|
B|---------0-------|-3-------3-------|-3---------------|-2---2---2--2--2-|
G|-0-------0-------|-4-------4-------|-2-------4-------|-2---2---2--2--2-|
D|-2-------2-------|-4-------4-------|-0----/7---7-4---|-2---2---2--2--2-|
A|-2-------2-------|-2-------2-------|---------------7-|-0---0---0--0--0-|
E|-0-------0-------|-----------------|-----------------|-----------------|

   A
e|-0-------0-------|
B|-2---2---2--2--2-|
G|-2---2---2--2--2-|
D|-2---2---2--2--2-|
A|-0---0---0--0--0-|
E|-----------------|



Chorus 1:

| Bm    | G     | D     | A     |
| Bm    | G     | D     | A     |
| G     | D     | A     | A     |



Bridge:

    D                 D                 D                 D
e||-----------------|-----------------|-----------------|-----------------||
B||-----------------|-----------------|-----------------|-----------------||
G||-----7---7-7-----|-----7---7---7---|-----7---7-7-----|-7---7---7---7---|| (x2)
D||-7-7-7-7-7---7---|-7-7-7---7---7---|-7-7-7-7-7---7---|-7-7-7---7---7---||
A||-5-5-5-5-5-----5-|-5-5-5-5-5-5-5---|-5-5-5-5-5-----5-|-5-5-5-5-5-5-5---||
E||-----------------|-----------------|-----------------|-----------------||

   G                 D                 A9                A9
e|-3-------3-----3-|-2-------0h2-----|-0---------------|-----------------|
B|-3---------3-----|-3-----------3---|-0-------0-----0-|-----0---0-2-----|
G|-0-----------0---|-2-------------2-|-2---------2-----|-2-----2-----2---|
D|-0---------------|-0---------------|-2-----------2---|---2-----------2-|
A|-2---------------|-----------------|-0---------------|-----------------|
E|-3---------------|-----------------|-----------------|-----------------|

   G                 D                 A9                A
e|-3-------3-----3-|-2-------0h2-----|-0---------------|-----------------|
B|-3---------3-----|-3-----------3---|-0-------0-----0-|---2---0-2-------|
G|-0-----------0---|-2-------------2-|-2---------------|-----------------|
D|-0---------------|-0---------------|-2---------2-----|-2---------2-----|
A|-2---------------|-----------------|-0---------------|-------------2-0-|
E|-3---------------|-----------------|-----------------|-----------------|



Verse 2:

   Em                Bm                D                 A
e|---------0-------|-----------------|-----------------|-0---------------|
B|---------0-------|-----------------|-3-------3-------|-2---2-----------|
G|---------0-------|-4-----2---2-----|-2-------2-------|-2---2-2-4-2-----|
D|-2-------2-------|-4---4---4---4-2-|-0-------0-------|-2---2-------4-2-|
A|-2-------2-------|-2---------------|-----------------|-0---0-----------|
E|-0-------0-------|-----------------|-----------------|-----------------|

   Em                Bm                D                 A
e|---------0-------|---------2-------|-----------------|-0-------0-------|
B|---------0-------|-3-------3-------|-3---------------|-2---2---2--2--2-|
G|-0-------0-------|-4-------4-------|-2-------4-------|-2---2---2--2--2-|
D|-2-------2-------|-4-------4-------|-0----/7---7-4---|-2---2---2--2--2-|
A|-2-------2-------|-2-------2-------|---------------7-|-0---0---0--0--0-|
E|-0-------0-------|-----------------|-----------------|-----------------|

   A
e|-0-------|
B|-2---2---|
G|-2---2---|
D|-2---2---|
A|-0---0---|
E|---------|



Chorus 2:

| Bm    | G     | D     | A     | (x5)



Special:

   D                 D                 D                 D
e|---------5-------|---------5-------|---------5-------|---------5-------|
B|---3---3---3---3-|---3---3---3---3-|---3---3---3---3-|---3---3---3---3-|
G|-2---2-------2---|-2---2-------2---|-2---2-------2---|-2---2-------2---|
D|-----------------|-----------------|-----------------|-----------------|
A|-----------------|-----------------|-----------------|-----------------|
E|-----------------|-----------------|-----------------|-----------------|



Chorus 3:

| Dm    | Bb    | F     | C     | (x4)



Solo:

   Dm                Bb                F                    C
e|-----------------|-----------------|--------------------|-----------------|
B|-8b(10)----------|-6---------------|-10-b(11)r(10)b(10)-|-8---10--8--10---|
G|-----------------|-----------------|--------------------|-----------------|
D|-----------------|-----------------|--------------------|-----------------|
A|-----------------|-----------------|--------------------|-----------------|
E|-----------------|-----------------|--------------------|-----------------|

   Dm                Bb                F                    C
e|-----------------|-----------------|--------------------|-----------------|
B|-8b(10)----(10)r-|-6---------------|-10-b(11)r(10)b(10)-|-8---10--8-/13---|
G|-----------------|-----------------|--------------------|-----------------|
D|-----------------|-----------------|--------------------|-----------------|
A|-----------------|-----------------|--------------------|-----------------|
E|-----------------|-----------------|--------------------|-----------------|

   Dm                Bb                  F                            C
e|-----------------|-------------------|----------------------------|--------------------|
B|[10]-----13---10-|[10]------10-------|----------------------------|-----------------13-|
G|-----------------|-------------12-10-|-12-b(14)r(12)b(14)r(12)p10-|-10-12-10-9-10------|
D|-----------------|-------------------|----------------------------|--------------------|
A|-----------------|-------------------|----------------------------|--------------------|
E|-----------------|-------------------|----------------------------|--------------------|

   Dm                Bb                F                 C
e|-----------------|----------------|-----------------|----------------------------------|
B|-13b(15)---(15)r-|-10--------10\8-|----8----8-[10]--|----------------------------------|
G|-----------------|----------------|-10---10---------|-10-12-10-12-[12]b(14)r(12)p10-12-|
D|-----------------|----------------|-----------------|----------------------------------|
A|-----------------|----------------|-----------------|----------------------------------|
E|-----------------|----------------|-----------------|----------------------------------|

   Dm
e|-----------------|
B|-----------------|
G|[10]-------------|
D|-----------------|
A|-----------------|
E|-----------------|
comments
We did not receive enough feedback on this tab! Please rate:
print report bad tab
1 2 3 4 5
I want to post or [tab]
guest
You may want to rate the tab now too:
select rating
Please do not post tabs as comments. Select "correction" instead!