Oops, an error
Loading. Please wait.

New Day Tab

ver1
ver1

Whole song

Interactive

More versions @911Tabs.com
25,161 views 73 this week
no commentswrite comment
1 2 3 4 5
excellent!
x 11
add to favorites launch autoscroll
font size
0
reset
Autoscroll
+/-
esc
set tempo
stop
Contributor
WARNING: You are trying to view
                                    content from Ultimate-Guitar.com
                                    in an unauthorized application,
                                    which is prohibited.

                                    Please use an official Ultimate
                                    Guitar Tabs application for iPhone,
                                    iPad or Android to access legitimate
                                    chords, guitar, bass, and drum tabs
                                    from Ultimate-Guitar.com database.

                                    Type "ultimate guitar tabs" in Apple
                                    App Store's or Android Market's
                                    search to find the application.
-----------------------------------------------------------------
                       New Day - Karnivool
-----------------------------------------------------------------
Tabbed by: Kristyn Lee
Email: spot_the_village_loony_836@hotmail.com

Tuning: B F# B G B E

It's all done. I missed a couple of minor bits but
this is pretty much the whole song.

Intro
e |----------------------------------------------|
B |--------2---------0--------0---------/3-2-----|
G |------2---2-----2---2----2--2-----------------|x4
B |--------------------------------0-0-----------|
F#|--0-0-------2-2-------------------------------|
B |---------------------3-3----------------------|

pre-chorus
e |---------------------------------------------------|
B |------2-----2-----2-----2-----2-----2-----2-----2--|
G |----2-----2-----2-----2-----2-----2-----2-----2----|
B |--3-----3-----3-----3-----0-----0-----0-----0------|
F#|---------------------------------------------------|
B |---------------------------------------------------|
     . . . . . . . . . . . . . . . . . . . . . . . .

e |---------------------------------------------------|
B |------2-----2-----2-----2-----2-----2-----0-----0--|
G |----2-----2-----2-----2-----2-----2-----2-----2----|
B |--3-----3-----3-----3-----------------5-----5------|
F#|-------------------------3-----3-------------------|
B |---------------------------------------------------|
     . . . . . . . . . . . . . . . . . . . . . . . .

e |---------------------------------------------------|
B |-----2-----2-----2-----2-----2-----2-----22h3------|
G |---2-----2-----2-----2-----2-----2-----2-----------|
B |-3-----3-----3-----3-----0-----0-----0-------------|
F#|---------------------------------------------------|
B |---------------------------------------------------|
    . . . . . . . . . . . . . . . . . . . . 

   "you will not see me..."
e |----------------------------------------|
B |-------2---------0---------0------------|
G |-----2---2~----2---2~----2---2~---------|
B |----------------------------------------|
F#|---0---------2--------------------------|
B |----------------------3-----------------|

   "it's a new day..."
e |----------------------------------------|
B |------2--------0--------0------33-22----|
G |----2---2----2---2----2---2-------------|x3
B |-----------------------------0----------|
F#|--0--------2----------------------------|
B |--------------------3-------------------|
   

e |------2--------0-----------------------------|
B |----2---2----2---2----0-3-2-----33-3p2-------|
G |---------------------------------------------|
B |-----------------------------0---------------|
F#|--0--------2-------3-------------------------|
B |---------------------------------------------|
                                   ..  

e |-------------------------------------|
B |--3-3-3-2-----7-77-------------------|
G |--2-2-2-2-----6-66-------------------|
B |-------------------------------------|
F#|----------0~-------------------------|
B |----------0~-------------------------|

1:18
e |----------------------------------------------------------|
B |--5h7p5---------------------------------------------------|
G |--------4/6~----------------------------------------------|
B |----------------------------------------------------------|
F#|----------------------------------------------------------|
B |----------------------------------------------------------|
1:28
e |---5h7p5-4\2--------------------------------------------|
B |--------------------------------------------------------|
G |--------------------------------------------------------|
B |--------------------------------------------------------|
F#|--------------------------------------------------------|
B |--------------------------------------------------------|
1:31
e |---9h10p9--------------------------------------------|
B |----------10-7h9h10-10p9p7---------------------------|
G |---------------------------9-------------------------|
B |-----------------------------10p7-9h10-5/7-----------|
F#|-----------------------------------------------------|
B |-----------------------------------------------------|

pre-chorus
e |---------------------------------------------------|
B |------2-----2-----2-----2-----2-----2-----2-----2--|
G |----2-----2-----2-----2-----2-----2-----2-----2----|
B |--3-----3-----3-----3-----0-----0-----0-----0------|
F#|---------------------------------------------------|
B |---------------------------------------------------|
     . . . . . . . . . . . . . . . . . . . . . . . .

e |------------------------------------------------------|
B |------2-----2-----2-----2-----2-----2-----0-0---------|
G |----2-----2-----2-----2-----2-----2-----2-----2-------|
B |--3-----3-----3-----3-----------------5---------------|
F#|-------------------------3-----3----------------------|
B |------------------------------------------------------|
     . . . . . . . . . . . . . . . . . . . . . . . 

e |---------------------------------------------------|
B |------2-----2-----2-----2-----2-----2-----2-----2--|
G |----2-----2-----2-----2-----2-----2-----2-----2----|
B |--3-----3-----3-----3-----0-----0-----0-----0------|
F#|---------------------------------------------------|
B |---------------------------------------------------|
     . . . . . . . . . . . . . . . . . . . . . . . .

e |-----------------------------------------------|
B |------2-----2----3-5p3------2-2--------0-3p2---|
G |----2-----2---------------2-----2----2---------|
B |------------------------5----------5-----------|
F#|--3-----3-----3--------------------------------|
B |-----------------------------------------------|
     . . . . . . .  . . .  . . . . .  . . . . .
1:51
e |-------------------------------------|
B |-------------------------------------|
G |--------------6h7p6------------------|
B |--5/7~------7-------7----------------|
F#|-------------------------------------|
B |-------------------------------------|
    
   "one more step..."
e |-------------------------------------|
B |--0~---------------------------------|
G |--2~---------------------------------|
B |--2~---------------------------------|
F#|--0~---------------------------------|
B |-------------------------------------|

   "now go..."
e |-------------------------------------|
B |-------------------------------------|
G |-------------------------------------|
B |---5--5/7----------------------------|
F#|-------------------------------------|
B |-------------------------------------|
2:12
e |-------------------------------------|
B |--5h7p5------------------------------|
G |--------4/6--6-----------------------|
B |---------------5~--------------------|
F#|-------------------------------------|
B |-------------------------------------|
2:17
e |-------------------------------------|
B |-------------------------------------|
G |-------------------------------------|
B |--/7---------------------------------|
F#|-----0~------------------------------|
B |-------------------------------------|
2:20
e |----------------------------------------------|
B |----------------------------------------------|
G |----------------------------------------------|
B |--101010101010101010101010-/121212-12/1414----|
F#|--0-0-0-0-0-0-0-0-0-0-0-0---0-0-0--0--0-0-----|
B |----------------------------------------------|
2:25
e |-----------------------------------------|
B |-----------------------------------------|
G |--7-7-7-7\4------------------------------|
B |-----------------------------------------|
F#|--------------0~--2~--3~--5~-------------|
B |-----------------------------------------|


2:33   Repeat pre-chorus

2:53
e |-------------------------------------|
B |-------------------------------------|
G |--7-6~--7-----9----------------------|x2
B |----------7~----7~--9-10~------------|
F#|-------------------------------------|
B |-------------------------------------|
3:24 play this riff a few times. changes a bit.
e |----9h10p9--------------------7---------------|
B |--7--------10--7h9h10~---7h10---7h10p9--------|
G |---------------------------------------9/11---|
B |----------------------------------------------|
F#|----------------------------------------------|
B |----------------------------------------------|
4:12     "Are we waiting..."
e |---------------------------------------|
B |---------------------------------------|
G |---------6\4--9\6----------------------|x4
B |--5--7---------------------------------|
F#|--5--7---------------------------------|
B |--5--7---------------------------------|
4:29
e |-----------------------------------------|
B |-----------------------------------------|
G |-----------------------------------------|x4
B |-----------------------------------------|
F#|---5h7-5h7^--5h7-5h7^--5h7-5h7^-\1-------|
B |---5h7-5h7^--5h7-5h7^--5h7-5h7^-\1-------|
4:45
e |-----------------------------------------|
B |-----------------------------------------|
G |-----------------------------------------|x2
B |---5h7-5h7^--5h7-5h7^--5h7-5h7^-1^-------|
F#|-----------------------------------------|
B |-----------------------------------------|

5:06
e |------------12p11----11------------------|
B |---10-10-10-------12---------------------|
G |-----------------------------------------|
B |-----------------------------------------|
F#|-----------------------------------------|
B |-----------------------------------------|

5:10    "how did they find me..."
e |-----------------------------------------|
B |----------------3-3----------------------|
G |--6-6--4-4--2-2--------------------------|x3
B |-----------------------------------------|
F#|-----------------------------------------|
B |-----------------------------------------|

e |-----------------------------------------|
B |-----------------------------------------|
G |---6-6-----------------------------------|
B |-------5-5-7-----------------------------|
F#|-----------------------------------------|
B |-----------------------------------------|

Repeat pre-chorus

5:43      "it's a new day..."
e |----------------------------------------|
B |------2--------0--------0------33-22----|
G |----2---2----2---2----2---2-------------|x3
B |-----------------------------0----------|
F#|--0--------2----------------------------|
B |--------------------3-------------------|

e |------2--------0-----------------------------|
B |----2---2----2---2----0-3-2-----33-3p2-------|
G |---------------------------------------------|
B |-----------------------------0---------------|
F#|--0--------2-------3-------------------------|
B |---------------------------------------------|
                                   ..  
e |----------------------------------------|
B |-----------777--------------------------|
G |-----------666--------------------------|
B |--33/55-0~-------333h5------------------|
F#|--33/55-0~-------333h5------------------|
B |--33/55-0~-------333h5------------------|
6:06     awesome riff
e |----------------------------------------|
B |---------------------------7\5-7/10\7---|
G |----6---4---7---6---6---4--x-x-x-x--x---|
B |--7---7---7---7---7---7----7\5-7/10\7---|
F#|----------------------------------------|
B |----------------------------------------|
6:48
e |--------------------------------|
B |---10p9--------10p9-------------|
G |--------9h11p9------9h11p9------|x12
B |--------------------------------|
F#|--------------------------------|
B |--------------------------------|
6:47    "this is a new day..."
e |-----------------------------------|
B |--3333-------3333------------------|
G |--2222-------2222------------------|
B |--3333-0000--3333-55-55------------|
F#|--3333-0000--3333-33-55------------|
B |--3333-0000--3333----55------------|

7:24     repeat until fade.
e |-------------------------------------|
B |-------------------------------------|
G |--7-6~--7-----9----------------------|
B |----------7~----7~--9-10~------------|
F#|-------------------------------------|
B |-------------------------------------|

| .  palm mute
| /  slide up
| \  slide down
| h  hammer-on
| p  pull-off
| ~  vibrato
| +  harmonic
| x  Mute note
==========================================================
comments
print report bad tab
I want to post or [tab]
guest
You may want to rate the tab now too:
select rating
Please do not post tabs as comments. Select "correction" instead!