Oops, an error
Loading. Please wait.

Hallelujah Live Tab

ver2
ver2

Whole song

More versions @911Tabs.com
9,966 views 6 this week
no commentswrite comment
1 2 3 4 5
excellent!
x 3
Autoscroll
+/-
esc
set tempo
stop
Contributor
Hey! There's an official Ultimate Guitar app which is ideal
for learning songs when you're away from computer. Get the app
WARNING: You are trying to view
                                    content from Ultimate-Guitar.com
                                    in an unauthorized application,
                                    which is prohibited.

                                    Please use an official Ultimate
                                    Guitar Tabs application for iPhone,
                                    iPad or Android to access legitimate
                                    chords, guitar, bass, and drum tabs
                                    from Ultimate-Guitar.com database.

                                    Type "ultimate guitar tabs" in Apple
                                    App Store's or Android Market's
                                    search to find the application.
Hallelujah (Live)
Kate Voegele

Capo 5th 

Intro (Main Riff)
(0:00-0:12)

e|-----------------------------------------------------|  
B|-------1-----------1------------1-----------1--------|   
G|-----0---0-------2---2--------0---0-------2---2------|   
D|---2-----------2------------2-----------2------------|   
A|-3---------2-0----------2-3---------2-0----------2---|   
E|-----------------------------------------------------| 2x


Verse 1
(0:13-0:38)

("Well I've heard there was a secret chord...")
e|-----------------------------------------------------|  
B|-------1-----------1------------1-----------1--------|   
G|-----0---0-------2---2--------0---0-------2---2------|   
D|---2-----------2------------2-----------2------------|   
A|-3---------2-0----------2-3---------2-0----------2---|   
E|-----------------------------------------------------|

e|-------1-----------1---------------------------------|
B|-----1---1-------1---1-----------1-----------0-------|
G|---2-------2---2-------2-------0---0-------0---0-----|
D|-3-----------3-----------3---2-------2---0-------0---|
A|---------------------------3-------------------------|
E|---------------------------------------3-------------|

e|-------------------------------------------1---------|
B|-------1---------1-------------1---------1---1-------|
G|-----0---0-----2-------0-----2---2-----2-------2-----|
D|---2-------2-3-------0-----2-------2-3---------------|
A|-3-----------------------0---------------------------|
E|-------------------3---------------------------------|

e|-----------------------------------------------------|
B|-------1-----------------------1-----------1---------|
G|-----0---0---------0---------2---2-------2---2-------|
D|---0-------0-----2---2-----2-------2---2-------2-----|
A|---------------2-------2-0-----------0---------------|
E|-3-----------0---------------------------------------|


Chorus 1
(0:39-0:58)
e|-------1-----------1---------------------------------|
B|-----1---1-------1---1---------1-----------1---------|
G|---2-------2---2-------2-----2---2-------2---2-------|
D|-3-----------3-------------2-------2---2-------2-----|
A|-------------------------0-----------0---------------|
E|-----------------------------------------------------|

e|-------1-----------1---------------------------------|
B|-----1---1-------1---1---------1-----------0---------|
G|---2-------2---2-------2-----0---0-------0---0-------|
D|-3-----------3-------------2-------2---0-------0-----|
A|-------------------------3---------------------------|
E|-------------------------------------3---------------|

e|-----------------------------------------------------|  
B|-------1-----------1------------1-----------1--------|   
G|-----0---0-------2---2--------0---0-------2---2------|   
D|---2-----------2------------2-----------2------------|   
A|-3---------2-0----------2-3---------2-0----------2---|   
E|-----------------------------------------------------|


Verse 2
(0:59-1:25)

("Well your faith was strong, but you needed proof...")
e|-----------------------------------------------------|  
B|-------1-----------1------------1-----------1--------|   
G|-----0---0-------2---2--------0---0-------2---2------|   
D|---2-----------2------------2-----------2------------|   
A|-3---------2-0----------2-3---------2-0----------2---|   
E|-----------------------------------------------------|

e|-------1-----------1---------------------------------|
B|-----1---1-------1---1-----------1-----------0-------|
G|---2-------2---2-------2-------0---0-------0---0-----|
D|-3-----------3-----------3---2-------2---0-------0---|
A|---------------------------3-------------------------|
E|---------------------------------------3-------------|

e|-------------------------------------------1---------|
B|-------1---------1-------------1---------1---1-------|
G|-----0---0-----2-------0-----2---2-----2-------2-----|
D|---2-------2-3-------0-----2-------2-3---------------|
A|-3-----------------------0---------------------------|
E|-------------------3---------------------------------|

e|-----------------------------------------------------|
B|-------1-----------------------1-----------1---------|
G|-----0---0---------0---------2---2-------2---2-------|
D|---0-------0-----2---2-----2-------2---2-------2-----|
A|---------------2-------2-0-----------0---------------|
E|-3-----------0---------------------------------------|


Chorus 2
(1:26-1:45)

e|-------1-----------1---------------------------------|
B|-----1---1-------1---1---------1-----------1---------|
G|---2-------2---2-------2-----2---2-------2---2-------|
D|-3-----------3-------------2-------2---2-------2-----|
A|-------------------------0-----------0---------------|
E|-----------------------------------------------------|

e|-------1-----------1---------------------------------|
B|-----1---1-------1---1---------1-----------0---------|
G|---2-------2---2-------2-----0---0-------0---0-------|
D|-3-----------3-------------2-------2---0-------0-----|
A|-------------------------3---------------------------|
E|-------------------------------------3---------------|

e|-----------------------------------------------------|  
B|-------1-----------1------------1-----------1--------|   
G|-----0---0-------2---2--------0---0-------2---2------|   
D|---2-----------2------------2-----------2------------|   
A|-3---------2-0----------2-3---------2-0----------2---|   
E|-----------------------------------------------------|


Verse 3
(1:46-2:13)

("Oh baby I have been here before...")
e|-----------------------------------------------------|  
B|-------1-----------1------------1-----------1--------|   
G|-----0---0-------2---2--------0---0-------2---2------|   
D|---2-----------2------------2-----------2------------|   
A|-3---------2-0----------2-3---------2-0----------2---|   
E|-----------------------------------------------------|

e|-------1-----------1---------------------------------|
B|-----1---1-------1---1-----------1-----------0h1-----|
G|---2-------2---2-------2-------0---0-------0----0----|
D|-3-----------3-----------3---2-------2---0--------0--|
A|---------------------------3-------------------------|
E|---------------------------------------3-------------|

e|-------------------------------------------1---------|
B|-------1---------1-------------1---------1---1-------|
G|-----0---0-----2-------0-----2---2-----2-------2-----|
D|---2-------2-3-------0-----2-------2-3---------------|
A|-3-----------------------0---------------------------|
E|-------------------3---------------------------------|

e|-----------------------------------------------------|
B|-------1-----------------------1-----3-----1---------|
G|-----0---0---------0---------2---2-----2-----2-------|
D|---0-------0-----2---2-----2-------2-----2-----2-----|
A|---------------2-------2-0---------------------------|
E|-3-----------0---------------------------------------|


Chorus 3
(2:13-2:25)

e|-------1-----------1---------------------------------|
B|-----1---1-------1---1---------1-----------1---------|
G|---2-------2---2-------2-----2---2-------2---2-------|
D|-3-----------3-------------2-------2---2-------2-----|
A|-------------------------0-----------0---------------|
E|-----------------------------------------------------|

e|-------1-----------1---------------------------------|
B|-----1---1-------1---1---------1-----------0---------|
G|---2-------2---2-------2-----0---0-------0---0-------|
D|-3-----------3-------------2-------2---0-------0-----|
A|-------------------------3---------------------------|
E|-------------------------------------3---------------|


Interlude
(2:26-2:47)

e|-------0-----3-----0--------------------------|
B|-----1---1-----1-----1-----1-----3-----1------|
G|---2-------2-----2-------2---2-----2-----2----|
D|-3---------------------2-------2-----2-----2--|
A|---------------------0------------------------|
E|----------------------------------------------| 

e|-------0-----3-----0--------------------------|
B|-----1-----1-----1---------1-----1h3-----3-1--|
G|---2-----2-----2---------2---2-------2--------|
D|-3---------------------2-------2-------2------|
A|---------------------0------------------------|
E|----------------------------------------------| 

e|-------1-----------1-------------------------------------|
B|-----1---1-------1---1---------0-----0h1-----1-----0-----|
G|---2-------2---2-------2-----0---0-------0-----0-----0---|
D|-3-----------3-------------0-------0-------0-----0-----0-|
A|---------------------------------------------------------|
E|-------------------------3-------------------------------|


Verse 4
(2:48-3:13)

("Well there was a time when you'd let me know...")
e|-----------------------------------------------------|  
B|-------1-----------1------------1-----------1--------|   
G|-----0---0-------2---2--------0---0-------2---2------|   
D|---2-----------2------------2-----------2------------|   
A|-3---------2-0----------2-3---------2-0----------2---|   
E|-----------------------------------------------------|

e|-------1-----------1---------------------------------|
B|-----1---1-------1---1-----------1-----------0-------|
G|---2-------2---2-------2-------0---0-------0---0-----|
D|-3-----------3-----------3---2-------2---0-------0---|
A|---------------------------3-------------------------|
E|---------------------------------------3-------------|

e|-------------------------------------------1---------|
B|-------1---------1-------------1---------1---1-------|
G|-----0---0-----2-------0-----2---2-----2-------2-----|
D|---2-------2-3-------0-----2-------2-3---------------|
A|-3-----------------------0---------------------------|
E|-------------------3---------------------------------|

e|-----------------------------------------------------|
B|-------1-----------------------1-----3-----1---------|
G|-----0---0---------0---------2---2-----2-----2-------|
D|---0-------0-----2---2-----2-------2-----2-----2-----|
A|---------------2-------2-0---------------------------|
E|-3-----------0---------------------------------------|


Chorus 4
(3:14-3:34)

e|-------1-----------1---------------------------------|
B|-----1---1-------1---1---------1-----------0h1-------|
G|---2-------2---2-------2-----2---2-------2-----2-----|
D|-3-----------3-------------2-------2---2---------2---|
A|-------------------------0-----------0---------------|
E|-----------------------------------------------------|

e|-------1-----------1---------------------------------|
B|-----1---1-------1---1---------1-----------0---------|
G|---2-------2---2-------2-----0---0-------0---0-------|
D|-3-----------3-------------2-------2---0-------0-----|
A|-------------------------3---------------------------|
E|-------------------------------------3---------------|

e|-----------------------------------------------------|  
B|-------1-----------1------------1-----------1--------|   
G|-----0---0-------2---2--------0---0-------2---2------|   
D|---2-----------2------------2-----------2------------|   
A|-3---------2-0----------2-3---------2-0----------2---|   
E|-----------------------------------------------------|


Verse 5
(3:35-4:00)

("Well maybe there is a God above...")
e|-----------------------------------------------------|  
B|-------1-----------1------------1-----------1--------|   
G|-----0---0-------2---2--------0---0-------2---2------|   
D|---2-----------2------------2-----------2------------|   
A|-3---------2-0----------2-3---------2-0----------2---|   
E|-----------------------------------------------------|

e|-------1-----------1---------------------------------|
B|-----1---1-------1---1-----------1-----------0-------|
G|---2-------2---2-------2-------0---0-------0---0-----|
D|-3-----------3-----------3---2-------2---0-------0---|
A|---------------------------3-------------------------|
E|---------------------------------------3-------------|

e|-------------------------------------------1---------|
B|-------1---------1-------------1---------1---1-------|
G|-----0---0-----2-------0-----2---2-----2-------2-----|
D|---2-------2-3-------0-----2-------2-3---------------|
A|-3-----------------------0---------------------------|
E|-------------------3---------------------------------|

e|-----------------------------------------------------|
B|-------1-----------------------1-----3-----1---------|
G|-----0---0---------0---------2---2-----2-----2-------|
D|---0-------0-----2---2-----2-------2-----2-----2-----|
A|---------------2-------2-0---------------------------|
E|-3-----------0---------------------------------------|


Chorus 5
(4:01-4:14)

e|-------1-----------1---------------------------------|
B|-----1---1-------1---1---------1-----0h1-----1-------|
G|---2-------2---2-------2-----2---2-------2-----2-----|
D|-3-----------3-------------2-------2-------2-----2---|
A|-------------------------0---------------------------|
E|-----------------------------------------------------|

e|-------1-----------1---------------------------------|
B|-----1---1-------1---1---------1-----------0---------|
G|---2-------2---2-------2-----0---0-------0---0-------|
D|-3-----------3-------------2--(2)--2---0-------0-----|
A|-------------------------3---------------------------|
E|-------------------------------------3----(3)--------|


Chorus 6 
(4:15-4:30)

e|-------1-----------1---------------------------------|
B|-----1---1-------1---1---------1-------3-----1-------|
G|---2-------2---2-------2-----2---2-------2-----2-----|
D|-3----(3)----3----(3)------2-------2-------2-----2---|
A|-------------------------0---------------------------|
E|-----------------------------------------------------|

e|-------1-----------1-------------------------------------|
B|-----1---1-------1---1---------1-----------0-----0h1-----|
G|---2-------2---2-------2-----0---0-------0---0-------0---|
D|-3-----------3-------------2-------2---0-------0-------0-|
A|-------------------------3-------------------------------|
E|-------------------------------------3-------------------|


Main Riff
(4:31-4:36)

e|-----------------------------------------------------|  
B|-------1-----------1------------1-----------1--------|   
G|-----0---0-------2---2--------0---0-------2---2------|   
D|---2-----------2------------2-----------2-------2----|   
A|-3---------2-0----------2-3---------2-0--------------|   
E|-----------------------------------------------------|


Outro
(4:37-4:44)
                                       (Slow down)
e|-------0-----3-----0------------------------------|
B|-----1-----1-----1---------0-----0h1-----1--------|
G|---2-----2-----2---------0---0-------0-----0------|
D|-3---------------------0-------0-------0-----0----|
A|--------------------------------------------------|
E|---------------------3----------------------------|


End Strum
(4:45)
    C
e|--0--|
B|--1--|
G|--0--|
D|--2--|
A|--3--|
E|--0--|  

Please feel free to comment or submit corrections!

Tabbed by: 
Ghada el Serafi

comments
We did not receive enough feedback on this tab! Please rate:
print report bad tab
1 2 3 4 5
I want to post or [tab]
guest
You may want to rate the tab now too:
select rating
Please do not post tabs as comments. Select "correction" instead!