Oops, an error
Loading. Please wait.

California Gurls Chords

ver5
ver5
More versions @911Tabs.com
39,554 views 36 this week
no commentswrite comment
1 2 3 4 5
accurate
x 5
Autoscroll
+/-
esc
set tempo
stop
Contributor
Difficulty
novice
Hey! There's an official Ultimate Guitar app which is ideal
for learning songs when you're away from computer. Get the app
WARNING: You are trying to view
                                    content from Ultimate-Guitar.com
                                    in an unauthorized application,
                                    which is prohibited.

                                    Please use an official Ultimate
                                    Guitar Tabs application for iPhone,
                                    iPad or Android to access legitimate
                                    chords, guitar, bass, and drum tabs
                                    from Ultimate-Guitar.com database.

                                    Type "ultimate guitar tabs" in Apple
                                    App Store's or Android Market's
                                    search to find the application.
Katy Perry - California Gurls
Chords and Tabs

If you use power chords its alot easier! =]
------------------------------------------


-INTRO-

  Am       Bb         C   Dm

e|-----------------------------------|
B|-1------3-3---------5---6-6--------|
G|-----------------------------------|
D|-----------------------------------|
A|-0------1-1---------3---5-5--------|
E|-----------------------------------|

-FIRST VERSE-  (Same as intro)

   Am	   Bb	      C    Dm
e|-----------------------------------|
B|-1------3-3---------5---6-6--------|
G|-2------3-3---------5---7-7--------|
D|-2------3-3---------5---7-7--------|
A|-0------1-1---------3---5-5--------|
E|-----------------------------------|

Am Bb             C Dm
I    know a place

          Am		  Bb	   C Dm
Where the grass is really greener

Am  Bb             C Dm
Warm, wet and wild
	      Am	      Bb     C Dm
There must be something in the water

Am    Bb	      C Dm
Sippin' gin and juice

       Am	     Bb	         C Dm
Laying underneath the palm trees

    Am   Bb 		     C Dm
The boys   Break their necks

	  Am		 Bb	    C Dm
Try'na to creep a little sneak peek

-PRE-CHORUS-

   C        Dm          Bb
e|-----------------------------------|
B|-5---------6----------3------------|
G|-----------------------------------|
D|-----------------------------------|
A|-3---------5----------1------------|
E|-----------------------------------|

C			Dm
You could travel the world

     Bb
But nothing comes close to the golden coast

C		     Dm
Once you party with us

	  Bb
You'll be falling in love


Oooh ooh oh ooooh


-CHORUS-  (Same as verse)

e|-----------------------------------|
B|-1------3-3---------5---6-6--------|
G|-2------3-3---------5---7-7--------|
D|-2------3-3---------5---7-7--------|
A|-0------1-1---------3---5-5--------|
E|-----------------------------------|

Am   Bb
California girls

      C     Dm
We're unforgettable

Am    Bb
Daisy Dukes

	C  Dm
Bikinis on top

Am	   Bb
Sun-kissed skin So hot

	C       Dm
will melt your popsicle

Am	Bb	C  Dm
  Oooh ooh oh ooooh

Am   Bb
California girls

      C    Dm
We're undeniable

Am	     Bb
Fine, fresh, fierce

   C	    Dm
We got it on lock

Am	  Bb
West coast represent
    C	     Dm
Now put your hands up

Am	Bb	C  Dm
  Oooh ooh oh ooooh


-SECOND VERSE-  (Same as first verse)

Sex on a beach
We get sand in our stilletos
We freak
In my jeep
Snoop Doggy-Dog on the stereo

-PRE-CHORUS-

You could travel the world
But nothing comes close
to the golden coast
Once you party with us
You'll be falling in love
Oooh ooh oh ooooh

-CHORUS- (Same)

California girls
We're unforgettable
Daisy Dukes
Bikinis on top
Sun-kissed skin
So hot
will melt your popsicle
Oooooh Oh Oooooh

California girls
We're undeniable
Fine, fresh, fierce
We got it on lock
West coast represent
Now put your hands up
Oooh ooh oh ooooh


-BRIDGE-  (Same as intro, verse and chorus)
[Instrumental]


-CHORUS-  (Same)

California girls
We're unforgettable
Daisy Dukes
Bikinis on top
Sun-kissed skin
So hot
will melt your popsicle
Oooh ooh oh ooooh

California girls
We're undeniable
Fine, fresh, fierce
We got it on lock
West coast represent
(West coast, west coast)
Now put your hands up
Oooh ooh oh ooooh
comments
print report bad tab
I want to post or [tab]
guest
You may want to rate the tab now too:
select rating
Please do not post tabs as comments. Select "correction" instead!