Oops, an error
Loading. Please wait.

10 Am Gare Du Nord Chords

25,457 views 366 this week
3 commentsread comments
1 2 3 4 5
excellent!
x 23
Autoscroll
+/-
esc
set tempo
stop
Contributor
Hey! There's an official Ultimate Guitar app which is ideal
for learning songs when you're away from computer. Get the app
WARNING: You are trying to view
                                    content from Ultimate-Guitar.com
                                    in an unauthorized application,
                                    which is prohibited.

                                    Please use an official Ultimate
                                    Guitar Tabs application for iPhone,
                                    iPad or Android to access legitimate
                                    chords, guitar, bass, and drum tabs
                                    from Ultimate-Guitar.com database.

                                    Type "ultimate guitar tabs" in Apple
                                    App Store's or Android Market's
                                    search to find the application.
-------------------------------------------------------------------------------
                             10 AM, Gare Du Nord  - Keaton Henson
-------------------------------------------------------------------------------
Tabbed by: Neil Wicker
E-mail: wicker101@hotmail.co.uk

Tuning: standard

capo 5

Em: 022003
G/F#: 200003
G:320003
C: x32010
D: x00232

intro goes something like this:

   Em      G/F#      G       C
e|----------------------------------------------------------------|
B|------0---------0-------0---0h1-------1-------1-------1p0-------|
G|----------0h2---------------------0-------0-------0---------0---|
D|----2---2-----0---0---0---0-----2---2---2---2---2---2-----2---2-|
A|----------------------------3---------3-------3-------3---------|
E|--0-------0h2-------3-------------------------------------------|

this is what it sounds like: https://soundcloud.com/wicker101/10-am-gare-du-nord-intro

you can carry on a similar picking pattern for the rest of the song or come up 
with your own take on it.

Verse:

Em          G/F#          G 
this feels right and i'm letting it
     G         G/F#         Em
but now i know just what to do
Em     G/F#        G       C
tire of me if you will my dear
    C      (pull-off B)  G       
but i will not tire of you
 
Em          G/F#        G        
this is the world as i see it now
G               G/F#       Em
turns out that nothing is fair
Em           G/F#       G        C
you can leave me if you wish my love
     C               G           G/F#
but i'm not going anywhere

repeat intro

G             C             D     Em
please do not hurt me love i'm a fragile one
       G         C           D
and you are the white in my eyes
G              C             D            Em
please do not break my heart i think it's had enough
G                 C          D
pain to last the rest of my life

repeat intro

Em            G/F#           G 
with endless distraction you worry me
G               G/F#         Em
and i'm trying to figure out how
Em                 G/F#     G        C
you don't have to make any promises, love
C                              G         G/F#
i'm afraid i might die for you now

         Em           G/F#            G
and i'd kill just to watch as you're sleeping
G                G/F#        Em
i'm hoping you'll let me in time
Em                G/F#     G        C
you don't have to call me yours, my love
C                            G        G/F#
but dammit, i'm calling you mine

repeat intro

G             C             D    Em
please do not hurt me love i'm a fragile one
       G         C           D
and you are the white in my eyes
G              C             D           Em
please do not break my heart i think it's had enough
G                 C          D
pain to last the rest of my life

repeat intro
my life


    C                  G
and i will not tire of you


-------------
enjoy and please rate :)
comments
print report bad tab
3 comments total.
0 reply
SlySlide wrote on March 30 2014, 11:01 am

Might want to throw in this at the end, just play around with it a bit
e|-------------------------------------|
B|---------1---1---1p0---0-------------|
G|----------------------------4p2p0----|
D|----2--------------------------------|
A|-------------------------------------|
E|-------------------------------------|

0 reply
joolet wrote on July 17 2014, 02:11 pm

In the song when it repeats the intro before the chorus the intro ends with a D/F# chord.

Something a bit like this:

Em G/F# G C
e|----------------------------------------------0h2-------|
B|------0---------0-------0---0h1-------1----------3------|
G|----------0h2---------------------0-------0--------2----|
D|----2---2-----0---0---0---0-----2---2---2---2-----------|
A|----------------------------3---------3-----------------|
E|--0-------0h2-------3--------------------------------2--|

You play the C for two bars and then the D for four

0 reply
joolet wrote on July 17 2014, 02:12 pm

In the song when it repeats the intro before the chorus the intro ends with a D/F# chord.

Something a bit like this:

Em G/F# G C
e|----------------------------------------------0h2-------|
B|------0---------0-------0---0h1-------1----------3------|
G|----------0h2---------------------0-------0--------2----|
D|----2---2-----0---0---0---0-----2---2---2---2-----------|
A|----------------------------3---------3-----------------|
E|--0-------0h2-------3--------------------------------2--|

You play the C for two bars and then the D for four

I want to post or [tab]
guest
You may want to rate the tab now too:
select rating
Please do not post tabs as comments. Select "correction" instead!