Oops, an error
Loading. Please wait.

To Your Health Tab

ver1
ver1

Whole song

More versions @911Tabs.com
9,764 views 75 this week
2 commentsread comments
1 2 3 4 5
accurate
x 3
add to favorites launch autoscroll
font size
0
reset
Autoscroll
+/-
esc
set tempo
stop
Contributor
Difficulty
novice
WARNING: You are trying to view
                                    content from Ultimate-Guitar.com
                                    in an unauthorized application,
                                    which is prohibited.

                                    Please use an official Ultimate
                                    Guitar Tabs application for iPhone,
                                    iPad or Android to access legitimate
                                    chords, guitar, bass, and drum tabs
                                    from Ultimate-Guitar.com database.

                                    Type "ultimate guitar tabs" in Apple
                                    App Store's or Android Market's
                                    search to find the application.
Zander Young.
First Tab.
Keaton Henson.
To Your Health.



Standard Tuning.
Capo 3rd Fret.

----------------------------------------------------------------------|
----------------------------------------------------------------------|
10-----14-----7-----9-------------------------------------------------|
-0------0-----0-----0-------------------------------------------------|
----------------------------------------------------------------------|
10-----13-----6-----8-------------------------------------------------|

2nd part with the added notes.


--------------------------------------------------------|
-10---13-----6-----8------------------------------------|
-10---14-----7-----9------------------------------------|
--------------------------------------------------------|
--------------------------------------------------------|
-10---13-----6-----8------------------------------------|
comments
We did not receive enough feedback on this tab! Please rate:
1 2 3 4 5
2 comments total.
+1 reply
Libertine0987 wrote on February 24 2013, 05:51 pm

I think this is tabbed not relative to the capo, in which case all the open strings should be read as notes on the 3rd (capoed) fret.

+2 reply
zfiles11 wrote on May 13 2013, 05:34 pm

Tabbing relative to capo and Keaton's version on Youtube:

----------------------------------------------------------------------|
----------------------------------------------------------------------|
-7-----11-----6-----4------6------7-----------------------------------|
-0------0-----0-----0------0------0-----------------------------------|
----------------------------------------------------------------------|
-7-----10-----5-----3------5------7-----------------------------------|

I want to post or [tab]
guest
You may want to rate the tab now too:
select rating
Please do not post tabs as comments. Select "correction" instead!