Oops, an error
Loading. Please wait.

Dreamcast 2 Tab

95 views 1 this week
no commentswrite comment
1 2 3 4 5
please rate
Autoscroll
+/-
esc
set tempo
stop
Contributor
Hey! There's an official Ultimate Guitar app which is ideal
for learning songs when you're away from computer. Get the app
WARNING: You are trying to view
                                    content from Ultimate-Guitar.com
                                    in an unauthorized application,
                                    which is prohibited.

                                    Please use an official Ultimate
                                    Guitar Tabs application for iPhone,
                                    iPad or Android to access legitimate
                                    chords, guitar, bass, and drum tabs
                                    from Ultimate-Guitar.com database.

                                    Type "ultimate guitar tabs" in Apple
                                    App Store's or Android Market's
                                    search to find the application.
dreamcast 2


keith apicary


TRANSCRIBED BY RUDY GUZMAN


guzman_84@hotmail.com




   On the brink of the new century, Sega cast a shadow upon the...
e:----------------------------------------------------------------|
B:----------14-17-14----14-------------------14-17-14----14-------|
G:-------16----------16----14-------------16----------16----16----|
D:----14-------------------------------14-------------------------|
A:-0-----------------------------------------------------------14-|
E:-----------------------------17---0-----------------------------|

    changed video games forever...
e:----------------------------------------------------------------|
B:----------2--5--2-----2---------------------2--5--2-----2-------|
G:-------4-----------4-----2---------------4-----------4-----4----|
D:----2---------------------------------2-------------------------|
A:-0---------------------------0-------------------------------2--|
E:----------------------------------0-----------------------------|

   Dreams that came true
e:---------------------------------|
B:----------14-17-14----14---------|
G:-------16----------16----14------|
D:----14---------------------------|
A:-0-------------------------------|
E:-----------------------------17--|



  1999 the world is living in it's prime and we got Disney...
   gt1
e:----------------------------------------------------------------|
B:----------14-17-14----14-------------------14-17-14----14-------|
G:-------16----------16----14-------------16----------16----16----|
D:----14-------------------------------14-------------------------|
A:-0-----------------------------------------------------------14-|
E:-----------------------------17---0-----------------------------|
   gt2
e:------------------------------------------------------------|
B:------------------------------------------------------------|
G:------------------------------------------------------------|
D:-------------------------------6--6-6--6-6-6--4--4-4--4-4-4-|
A:-7--7-7--7-7-7--4--4-4--4-4-4--4--4-4--4-4-4--2--2-2--2-2-2-|
E:-5--5-5--5-5-5--2--2-2--2-2-2-------------------------------|


  whoa stop stop                           x2
e:------------------------------------------|
B:------------------------------------------|
G:------------------------------------------|
D:----------------------6--6--6---4--4--4\3-|
A:-7--7--7---4--4--4----4--4--4---2--2--2\1-|
E:-5--5--5---2--2--2------------------------|

  No! This simply can't be true The Dreamcast is through?...
e:--------------------------------------------------------------------|
B:----------14-17-14----14--------------------------------------------|
G:-------16----------16----14-----------------------------------------|
D:----14----------------------------------------14--------------------|
A:-0--------------------------------------14-16-----16-16-14-16-14----|
E:-----------------------------17--17-17---------------------------12-|


   Sega I know I can count on you...  Please tell me ooo!
e:-----------------------------------14--------------------|
B:----------14-17-14----14-17--15-17----15--15-15-14-12----|
G:-------16----------16---------------------------------14-|
D:----14---------------------------------------------------|
A:---------------------------------------------------------|
E:-0-------------------------------------------------------|



  Do you know if dreams come true? Because if they do the Dreamcast...
  gt1
e:--------------------------------------------------------------------|
B:----------14-17-14----14--------------------------------------------|
G:-------16----------16----14-----------------------------------------|
D:----14----------------------------------------14--------------------|
A:-0--------------------------------------14-16-----16-16-14-16-14----|
E:-----------------------------17--17-17---------------------------12-|
  gt2
e:---------------------------------------------------------------------------|
B:---------------------------------------------------------------------------|
G:---------------------------------------------------------------------------|
D:-----------------------------------6--6-6--6-6-6-6-6--4--4-4--4-4-4--------|
A:-7--7-7--7-7-7--4--4-4--4-4-4-4-4--4--4-4--4-4-4-4-4--2--2-2--2-2-2--2-2-2-|
E:-5--5-5--5-5-5--2--2-2--2-2-2-2-2------------------------------------0-0-0-|

Do you know if dreams come true? Cause if they do...
  gt1
e:-----------------------------------14--------------------|
B:----------14-17-14----14-17--15-17----15--15-15-14-12----|
G:-------16----------16---------------------------------14-|
D:----14---------------------------------------------------|
A:---------------------------------------------------------|
E:-0-------------------------------------------------------|
  gt2
e:---------------------------------------------------------------------------|
B:---------------------------------------------------------------------------|
G:---------------------------------------------------------------------------|
D:-----------------------------------6--6-6--6-6-6-6-6--4--4-4--4-4-4--------|
A:-7--7-7--7-7-7--4--4-4--4-4-4-4-4--4--4-4--4-4-4-4-4--2--2-2--2-2-2--2-2-2-|
E:-5--5-5--5-5-5--2--2-2--2-2-2-2-2------------------------------------0-0-0-|


e:------------------------------------------------------------------------------------|
B:------------------------------------------------------------------------------------|
G:------------------------------------------------------------------------------------|
D:------------------------------------------------------------------------------------|
A:-5-5-5-5-5-5-5-3h5-5-5-5-5-5-5-5--3-3-3-3-3-3-3h5--5-5-5-5-5-5-5--3h5-5-5-5-5-5-5-5-|
E:------------------------------------------------------------------------------------|

e:----------------------------------------------|
B:----------------------------------------------|
G:----------------------------------------------|
D:--------------------3-3-3-3-3-3-3-2-2-2-2-2-2-|
A:-3h5-5-5-5-5-5-5-5----------------------------|
E:----------------------------------------------|

   How could it end when it barely began?...
e:--------------------------------------------------------------------|
B:--------------------------------------------------------------------|
G:--------------------------------------------------------------------|
D:----------------2-0-2------------------------------------0--4p2-----|
A:-4-2--4-2--4-2---------4-2--4-2--4-----------4-2--4-2--4--------4p2-|
E:------------------------------------0h2-0h2-------------------------|

e:-------------------------------------------------------------------|
B:-------------------------------------------------------------------|
G:-------------------------------------------------------------------|
D:----------------2-0-2-----------------2-0-2-----------------2-0-2--|
A:-4-2--4-2--4-2---------4-2--4-2--4-2---------4-2--4-2--4-2---------|
E:-------------------------------------------------------------------|

e:-------------------------------------------------------------------|
B:-------------------------------------------------------------------|
G:-------------------------------------------------------------------|
D:----------------2-0-2-----------------2-0-2-----------------2-0-2--|
A:-4-2--4-2--4-2---------4-2--4-2--4-2---------4-2--4-2--4-2---------|
E:-------------------------------------------------------------------|


  Do you know if dreams come true? Because if they do the Dreamcast...
  gt1
e:--------------------------------------------------------------------|
B:----------14-17-14----14--------------------------------------------|
G:-------16----------16----14-----------------------------------------|
D:----14----------------------------------------14--------------------|
A:-0--------------------------------------14-16-----16-16-14-16-14----|
E:-----------------------------17--17-17---------------------------12-|
  gt2
e:---------------------------------------------------------------------------|
B:---------------------------------------------------------------------------|
G:---------------------------------------------------------------------------|
D:-----------------------------------6--6-6--6-6-6-6-6--4--4-4--4-4-4--------|
A:-7--7-7--7-7-7--4--4-4--4-4-4-4-4--4--4-4--4-4-4-4-4--2--2-2--2-2-2--2-2-2-|
E:-5--5-5--5-5-5--2--2-2--2-2-2-2-2------------------------------------0-0-0-|


  Do you know if dreams come true? Cause if they do...
  gt1
e:-----------------------------------14--------------------|
B:----------14-17-14----14-17--15-17----15--15-15-14-12----|
G:-------16----------16---------------------------------14-|
D:----14---------------------------------------------------|
A:---------------------------------------------------------|
E:-0-------------------------------------------------------|
  gt2
e:---------------------------------------------------------------------------|
B:---------------------------------------------------------------------------|
G:---------------------------------------------------------------------------|
D:-----------------------------------6--6-6--6-6-6-6-6--4--4-4--4-4-4--------|
A:-7--7-7--7-7-7--4--4-4--4-4-4-4-4--4--4-4--4-4-4-4-4--2--2-2--2-2-2--2-2-2-|
E:-5--5-5--5-5-5--2--2-2--2-2-2-2-2------------------------------------0-0-0-|



e:----------------------------------------------------------------|
B:----------14-17-14----14-------------------14-17-14----14-------|
G:-------16----------16----14-------------16----------16----16----|
D:----14-------------------------------14-------------------------|
A:-0-----------------------------------------------------------14-|
E:-----------------------------17---0-----------------------------|


                            lyrics
On the brink of the new century, Sega cast a shadow upon the future.
That shadow changed video games forever.
They were no longer known as games.
They were now dreams.
Dreams that came true.

1999 the world is living in it's prime and we got Disney Afternoon,
some Ecto Coolers, and Boku. Adult juice box.
Skating around the town with my new Jnco's falling down.
I rip a power slide to stop in front of Funcoland game shop.

Whoa, stop, stop. Wait guys, stop. What is that little grey box?

Oh thats just Sega's masterpiece.
The Dreamcast 128 bit beast.
2001 the Dreamcasts done that's it, no more.
That things deceased.

No! This simply can't be true.
The Dreamcast is through?
There must be a 2 ooo!
Sega I know I can count on you to follow through.
Please tell me ooo!

Do you know if dreams come true?
Because if they do the Dreamcast 2 is true.
Do you know if dreams come true?
Cause if they do, theres a Dreamcast 2.

How could it end when it barely began?
Just take it from me, Sega's loyalist fan.
The DC2 will be stronger then man.
With a million bit graphics, it'll cost a grand.
Been searching for this thing all across the land.
I asked Olivia Munn but she didn't understand.
Well I know the truth. Sega's got a plan.
They're secretly developing a new Seaman plus Power Stone 3 and a second Gundam.
And they'll fix that laser and the crazy loud fan.
Available for Christmas in 3010.

Do you know if dreams come true?
Because if they do the Dreamcast 2 is true.
Do you know if dreams come true?
Cause if they do, theres a Dreamcast 2.

Go!

Do you know if dreams come true?
Because if they do the Dreamcast 2 is true.
Do you know if dreams come true?
Cause if they do, theres a Dreamcast 2.




hillo son mex

24/08/11
comments
We did not receive enough feedback on this tab! Please rate:
print report bad tab
1 2 3 4 5
I want to post or [tab]
guest
You may want to rate the tab now too:
select rating
Please do not post tabs as comments. Select "correction" instead!