Oops, an error
Loading. Please wait.

Four Bright Buttons And Two Joysticks Neo Geo Tab

206 views 1 this week
no commentswrite comment
1 2 3 4 5
please rate
Autoscroll
+/-
esc
set tempo
stop
Contributor
NEW! There's an official Ultimate Guitar app which is ideal
for learning songs when you're away from computer. Get the app
WARNING: You are trying to view
                                    content from Ultimate-Guitar.com
                                    in an unauthorized application,
                                    which is prohibited.

                                    Please use an official Ultimate
                                    Guitar Tabs application for iPhone,
                                    iPad or Android to access legitimate
                                    chords, guitar, bass, and drum tabs
                                    from Ultimate-Guitar.com database.

                                    Type "ultimate guitar tabs" in Apple
                                    App Store's or Android Market's
                                    search to find the application.
Four Bright Buttons and Two Joysticks "neo geo"



keith apicary



TRANSCRIBED BY RUDY GUZMAN



guzman_84@hotmail.com





e:-----------------------------------|
B:-----------------------------------|
G:-9-----7-9-----7---9-----7-9-------|
D:---7-9-----7-9-------7-9-----7-9-7-|
A:-----------------------------------|
E:-----------------------------------|

   neo geo neo geo Four Bright Buttons....
e:--------------------------------------------------------------------|
B:--------------------------------------------------------------------|
G:--------------------------------------------------------------------|
D:------------------4-4-4-4-4-4-4-4-------------------2-2-2-2-2-2-2-2-|
A:-2-2---2-2-2---2--2-2-2-2-2-2-2-2--2-2---2-2-2---2--0-0-0-0-0-0-0-0-|
E:-0-0-3-0-0-0-3-0-------------------0-0-3-0-0-0-3-0------------------|


  No one quite did 2D fighters like you did...
e:------------------------------------------------------------------|
B:------------------------------------------------------------------|
G:------------------------------------------------------------------|
D:------------------4---4---4---4---------------------2---2---2---2-|
A:-2-2---2-2-2---2--2---2---2---2----2-2---2-2-2---2--0---0---0---0-|
E:-0-0-3-0-0-0-3-0-------------------0-0-3-0-0-0-3-0----------------|


  I played that cab for hours on end to the point where that thing was my...
e:--------------------------------------------------------------------------|
B:--------------------------------------------------------------------------|
G:--------------------------------------------------------------------------|
D:--------------------4-4-44-4-4-4-44---------------------2-2--22-2-2-2--22-|
A:-2-2--22-2-2-2--22--2-2-22-2-2-2-22--2-2--22-2-2-2--22--0-0--00-0-0-0--00-|
E:-0-0--00-0-0-0--00-------------------0-0--00-0-0-0--00--------------------|


   neo geo neo geo Four Bright Buttons....
e:--------------------------------------------------------------------|
B:--------------------------------------------------------------------|
G:--------------------------------------------------------------------|
D:------------------4-4-4-4-4-4-4-4-------------------2-2-2-2-2-2-2-2-|
A:-2-2---2-2-2---2--2-2-2-2-2-2-2-2--2-2---2-2-2---2--0-0-0-0-0-0-0-0-|
E:-0-0-3-0-0-0-3-0-------------------0-0-3-0-0-0-3-0------------------|


OK so we all know that Neo Geo MVS arcade cabinet is the best thing...
e:--------------------------------------------------------------|
B:--------------------------------------------------------5-7-8-|
G:----------5-4-----2-3-4---2------------------2--4-5--7--------|
D:-5--7-4--------5--------------2----5-4---5--------------------|
A:--------------------------------------------------------------|
E:--------------------------------------------------------------|

  ScrewAttack's the place it's all at. With a name like that...
e:--------------------------------------------------------------------------|
B:--------------------------------------------------------------------------|
G:--------------------------------------------------------------------------|
D:--------------------4-4-44-4-4-4-44---------------------2-2--22-2-2-2--22-|
A:-2-2--22-2-2-2--22--2-2-22-2-2-2-22--2-2--22-2-2-2--22--0-0--00-0-0-0--00-|
E:-0-0--00-0-0-0--00-------------------0-0--00-0-0-0--00--------------------|


Uh right? Was that good? You like my song?
e:-------------------------------------|
B:-------------------------------------|
G:-------------------------------------|
D:-------------------------------------|
A:---2---2---2---2---2---2---2---2---2-|
E:-0---0---0---0---0---0---0---0---0---|


   neo geo neo geo Four Bright Buttons....
e:--------------------------------------------------------------------|
B:--------------------------------------------------------------------|
G:--------------------------------------------------------------------|
D:------------------4-4-4-4-4-4-4-4-------------------2-2-2-2-2-2-2-2-|
A:-2-2---2-2-2---2--2-2-2-2-2-2-2-2--2-2---2-2-2---2--0-0-0-0-0-0-0-0-|
E:-0-0-3-0-0-0-3-0-------------------0-0-3-0-0-0-3-0------------------|


                          The guys on RacketBoy are gonna love this one.
e:-----------------------------------------------------------|
B:-----------------------------------------------------------|
G:-9-----7-9-----7-9-----7-9-----7-9------7-9------7-9-------|
D:---7-9-----7-9-----7-9-----7-9------7-9------7-9-----------|
A:-----------------------------------------------------------|
E:-----------------------------------------------------------|



                        lyrics

    Neo Geo, Neo Geo. Four bright buttons and two joysticks.
    Neo Geo, Neo Geo. Cool red cab and a name that sticks.

    No one quite did 2D fighters like you did.
    No one quite did runnin' and gunnin' like you did
    No one quite did Puzzle Bobble like you did
    I'll always love my four slot model cause I, I...

    I played that cab for hours on end to the point where that thing was my only friend.
    With a heavy machine gun in my hand I beat Metal Slug over and over again.
    You're 32 bits of endless fun. You're a 1990 revolution.
    You're ahead of the game. You are the best. You're the SNK king of MVS.

    You're an attractive machine in a pretty red dress.
    When I'm playing as Mai I wanna give you a kiss.
    Forget Chun Li when there's Shiranui.
    She'll knock you out with those big ninja bee's.

    I'm the Samurai Showdown digital god when you're playing against me
    and my ninja dog. I'm like Galford with my cool blond hair.
    But I dont have a ninja dog. I have a ninja chair.

    Neo Geo, Neo Geo. Four bright buttons and two joysticks.
    Neo Geo, Neo Geo. Cool red cab and a name that sticks.

    OK so we all know that Neo Geo MVS arcade cabinet is the best thing to ever exist on 
the planet. That's obvious.
    If you were born then you know that. If you don't know that then you're technically 
not alive.
    So you might wanna get that checked out.
    but there's also another best thing on the planet. Listen up.

    ScrewAttack's the place it's all at. With a name like that it's so bad,
    ask me where I get my retro games. The answer I give will never change.
    It's a magical land named GameAttack. OK it's just a store but it's near Dallas.

    The place to be is SGC. If you went down there then you saw me.
    I'll never forget the wet konga or the hotel front desk babe named Sonya.
    I never did get my kiss of death. But if I go next year I'm sure she'll say yes.

    Yeah ScrewAttack is really cool but I ran out of material.
    I dont know what else to say about that website so I'll just say go to it
    cause it's really cool. Uh right? Was that good? You like my song?

    Neo Geo, Neo Geo. Four bright buttons and two joysticks.
    Neo Geo, Neo Geo. Cool red cab and a name that sticks.

    The guys on RacketBoy are gonna love this one.




                                         websites


http://keithapicary.bandcamp.com/album/talking-classics-compact-disc-on-the-internet     
    album

http://itunes.apple.com/us/album/classic-gaming-wiz/id374811291                          
    album itunes

http://www.facebook.com/pages/Keith-Apicary/115595399714                                 
    facebook

http://www.youtube.com/watch?v=Q_kGJBv6Wr4                                               
    video

http://www.twitter.com/KeithApicary                                                      
    twitter

http://www.nathanbarnatt.com/



hillo son mex

13/07/11
comments
We did not receive enough feedback on this tab! Please rate:
print report bad tab
1 2 3 4 5
I want to post or [tab]
guest
You may want to rate the tab now too:
select rating
Please do not post tabs as comments. Select "correction" instead!