Oops, an error
Loading. Please wait.

Chance Acoustic Tab

257 views 1 this week
no commentswrite comment
1 2 3 4 5
please rate
add to favorites launch autoscroll
font size
0
reset
Autoscroll
+/-
esc
set tempo
stop
Contributor
Difficulty
intermediate
WARNING: You are trying to view
                                    content from Ultimate-Guitar.com
                                    in an unauthorized application,
                                    which is prohibited.

                                    Please use an official Ultimate
                                    Guitar Tabs application for iPhone,
                                    iPad or Android to access legitimate
                                    chords, guitar, bass, and drum tabs
                                    from Ultimate-Guitar.com database.

                                    Type "ultimate guitar tabs" in Apple
                                    App Store's or Android Market's
                                    search to find the application.
Song: Chance - Acoustic
Artist: Ken Block 
Album: Drift 
By: Ben Mc


This is for Jim


Key of D Major


Chords Used:


  Dsus2 Em7  G   A  D/A Bm  F#m  D/C#* B/D* D/A* G/F#* 
 
e|---0----0---0--X---0--2---2----X-----x-----X---X-----|
B|---3----3---3--5---5--3---2----3-----3-----3---3-----|
G|---2----0---0--2---2--4---2----2-----2-----2---0-----|
D|---0----2---0--2---0--4---4----X-----0-----2---0-----|
A|---X----2---X--0---0--2---4----4-----2-----0---0-----|
E|---X----0---3--X---X--2---2----X-----X-----X---2-----|

The D/A (not sure what the real name for this chord is) is really
implied by the notes played (see the picking below). If you dont 
play the picking sections you can just play a strait D/A like in
the chorus (*).    


Picking:

Most of the picking particularly in the verses however 
is just playing the chords kind of semi arpeggio by making sure 
to hit the high e,b and or g strings on the up stroke after 
strumming the chord - listen along to get the idea.

The most important 'voiced' notes in the 
intro and verses are on the D/A type chord (4th chord) which is always 
picked. The variations for the picked notes on this chord are as
follows - I will add the variation number after the chord below 
to denote which fill is being played (approx).  
    
     D/A 1       D/A 2             D/A 3         
e|-----------|---------0h2------|---------------|
B|---3h5-3---|-- 3h5-3----5p3---|--3-3h5-5p3----|
G|---2-------|--2----2----------|--2------------|
D|-----------|------------------|---------------|
A|-----------|------------------|---------------|
E|-----------|------------------|---------------|


Obviously these are all in the same measure so you will have to 
adjust your timing to fit the different fills in.


In the Chorus it is important to sound all the bass notes of the chords:

Chorus 1

  Dsus2 D/C# B/D  D/A   G   G/F# Em7  D/A
e|----------------------------------------|
B|--3----3----3----3----3----3----3----3--|
G|--2----2----2----2----0----0----0----2--|  X 2
D|--0-------------------------------------|
A|-------4----2----0-------------------0--|
E|----------------------3----2----0-------|

Chorus 2                                       

  Dsus2 D/C# B/D  D/A   G   G/F# Em7  D/A
e|----------------------------------------|
B|--3----3----3----3----3----3----3----3--|
G|--2----2----2----2----0----0----0----2--|
D|--0-------------------------------------|
A|-------4----2----0-------------------0--|
E|--------------------2h3----2----0-------|

  Dsus2 D/C# B/D  D/A   G   G/F# Em7  D/A
e|----------------------------------------| 
B|--3----3----3----3----3----3----3----3--|
G|--2----2----2----2----0----0----0----2--|
D|--0-------------------------------------|
A|-------4--0h2----0-------------------0--|
E|--------------------2h3----0----0-------|


Chorus 3                                     

  Dsus2 D/C# B/D  D/A   G   G/F# Em7  D/A
e|----------------------------------------|
B|--3----3----3----3----3----3----3----3--|
G|--2----2----2----2----0----0----0----2--|
D|--0-------------------------------------|
A|-------4--0h2----0-------------------0--|
E|---------------------2h3---0----0-------|

  Dsus2 D/C# B/D  D/A   G   G/F# Em7  D/A
e|----------------------------------------|
B|--3----3----3----3----3----3----3----3--|
G|--2----2----2----2----0----0----0----2--|
D|--0-------------------------------------|
A|-------4--0h2----0-------------------0--|
E|---------------------2h3---2----0-------|


INTRO

--------------------------------------------------------------------
Starts like: 

  Dsus2            Em7              etc... 
e|-------0-------|--0--0--0-------| 
B|---3-----3---3-|--3--3----3--3--|
G|-----2-----2---|--0--0-----0----|
D|---------------|--2--2----------|
A|---------------|--2--2----------|
E|---------------|--0--0----------|

--------------------------------------------------------------------


Dsus2 Em7 G D/A (1)


Dsus2 Em7 G D (1)



VERSE 1

  Dsus2          Em7              G         D/A 1
I never knew how much I'd come to love you

  Dsus2          Em7              G         D/A 2
I never knew how much I'd come to love you

      Dsus2          Em7            G
I had no idea if I'd disappear from fear

       D/A 1           Dsus2  Em7   G    D/A 2
Of the greatest gift I almost faded away


VERSE 2

  Dsus2           Em7              G         D/A 3
I had no idea how much I'd come to need you

  Dsus2           Em7              G                D/A 1       
I had no idea how much I'd burn If i couldnt see you

  Dsus2              Em7            G
I had no idea if I'd disappear from fear

         D/A 1                Dsus2 Em7     G   D/A 2
your the greatest gift who's ever taken to me


PRE CHORUS

        Bm 
But you pierced my heart in June

    F#m
You laughed and hung the moon

     G       
In a while, child

      A
I was wrapped around your fingers



CHORUS 1

Dsus2 D/C#* B/D*
Chance

     D/A*    G      G/F#* Em7 D/A*
What are the chances

     G
That you would look down from the sky

    A 
And choose me to be your own


    Dsus2 D/C#* B/D*
And Chance

     D/A*    G      G/F#* Em7 D/A*
What are the chances                        e|--0-2------|
                                            B|--3---5--3-|
     G*---------------------------------->  G|--0--------|
That you would sacrifice your wings         D|--0--------|
                                            A|--0--------|
   A                                        E|--3--------|
To become flesh and bone


For me


Interlude: 

Dsus2 Em7 G D/A 2


Dsus2 Em7 G D/A 2



VERSE 3

Dsus2           Em7              G         D/A 2
Can't believe I called it love before you

Dsus2           Em7              G         D/A 1
to think I even thought I could ignore you

  Dsus2              Em7            G
I had no idea if I'd disappear from fear

      D/A 1
Those days were cold

      Dsus2  Em7    G    D/A 2
And I almost faded away



PRE CHORUS 

        Bm     
But you changed the way I breathe

F#m
rearranged my dreams 

       G
To the world your only one 

       A
But to me you are my world


CHORUS 2


Dsus2 D/C#* B/D*
Chance

     D/A*    G      G/F#* Em7 D/A*
What are the chances

     G
That you would look down from the sky

    A 
And choose me to be your own


    Dsus2 D/C#* B/D*
And Chance

     D/A*    G      G/F#* Em7 D/A*
What are the chances

     G* (same picking as before)
That you would sacrifice your wings     e|--------|
                                        B|--3h5---|
   A----------------------------------> G|--2-----|
To become flesh and bone                D|--2-----|
                                        A|--0-----|
                                        E|--X-----|
For me


INTERLUDE  


   Dsus2   D/C#* B/D*    D/A*     G        G/F#*    Em7      D/A*

e|---------------------------------------------------------------------|
B|-----3-----3---------3------3--------3--------3--------3--------3----|
G|---2-----2---2-----2---2------2--------2--------2--------0--------2--| X 2
D|-0-------------------------2--------0--------0--------2--------2-----|   
A|-------4-------0h2-------0-----------------------------------0-------|
E|--------------------------------3--------2--------0------------------|



VERSE 4

Dsus2             Em7                 G      D/A
Searching for the things that make us matter

          Dsus          Em7           G      D/A
we're all hungry in our needing to be whole

         Dsus2             Em7                  G       D/A
Were all searching for the things that makes us matter
            
          Dsus2         Em7           G       D/A
we're all hungry in our needing to be whole



CHORUS 3

Dsus2 D/C#* B/D*
Chance

     D/A*    G      G/F#* Em7 D/A*
What are the chances

     G
That you would look down from the sky

    A 
And choose me to be your own


    Dsus2 D/C#* B/D*
And Chance

     D/A*    G      G/F#* Em7 D/A*
What are the chances

     G
That you would sacrifice your wings

   A
To become flesh and bone


For me


Outro (like Chorus 1)


Dsus2 D/C#* B/D*  D/A* G  G/F#* Em7 D/A*

Dsus2 D/C#* B/D*  D/A* G  G/F#* Em7 -->(palm muted fast arpeggio to finish)  



2nd Guitar over the top can play: 

e|----------------------------------------|--------------------------------|
B|----------------------------------------|--------------------------------|
G|----------------------------------------|--------------------------------|
D|-12-11-9------------------9--11--12--12-|-12--11---9----------------14---|
A|---------12-10-9-------12---------------|--------------12--10--9----14---|
E|------------------12--------------------|---------------------------12---|
comments
We did not receive enough feedback on this tab! Please rate:
1 2 3 4 5
I want to post or [tab]
guest
You may want to rate the tab now too:
select rating
Please do not post tabs as comments. Select "correction" instead!