Oops, an error
Loading. Please wait.

Use Me Tab

ver2
ver2

Whole song

More versions @911Tabs.com
186 views 1 this week
no commentswrite comment
1 2 3 4 5
excellent!
x 1
Autoscroll
+/-
esc
set tempo
stop
Contributor
Difficulty
novice
WARNING: You are trying to view
                                    content from Ultimate-Guitar.com
                                    in an unauthorized application,
                                    which is prohibited.

                                    Please use an official Ultimate
                                    Guitar Tabs application for iPhone,
                                    iPad or Android to access legitimate
                                    chords, guitar, bass, and drum tabs
                                    from Ultimate-Guitar.com database.

                                    Type "ultimate guitar tabs" in Apple
                                    App Store's or Android Market's
                                    search to find the application.
-------------------------------------------------------------------------------
                             USE ME - Kid Courageous
-------------------------------------------------------------------------------
Tabbed by: bizzykid
Email: asongformardi@gmail.com

Tuning: eadgbe

Intro
Guitar 1
e|----------------------------------------------------------------------------|
B|----------------------------------------------------------------------------|
G|-4-4-----------------11-9---4-4-----------------11--------------------------|
D|-4-4--6-6--7-7--2-2--x--x---4-4--6-6--7-7--2-2--x---------------------------|
A|-2-2--6-6--7-7--2-2--9--7---2-2--6-6--7-7--2-2--9---------------------------|
E|------4-4--5-5--0-0--------------4-4--5-5--0-0------------------------------|

e|----------------------------------------------------------------------------|
B|----------------------------------------------------------------------------|
G|-4-4-----------------11-9---4-4-----------------11--------------------------|
D|-4-4--6-6--7-7--2-2--x--x---4-4--6-6--7-7--2-2--x---------------------------|
A|-2-2--6-6--7-7--2-2--9--7---2-2--6-6--7-7--2-2--9---------------------------|
E|------4-4--5-5--0-0--------------4-4--5-5--0-0------------------------------|

Guitar 2 (after Guitar 1 plays one time on its own)
e|----------------------------------------------------------------------------|
B|----------------------------------------------------------------------------|
G|----------------------------------------------------------------------------|
D|----------------------------------------------------------------------------|
A|----------------------------------------------------------------------------|
E|----------------------------------------------------------------------------|

e|----------------------------------------------------------------------------|
B|----------------------------------------------------------------------------|
G|-9-9--11-11--14-14--13-13---9-9--11-11--14-14--13-13------------------------|
D|-x-x--x--x---x--x---x--x----x-x--x--x---x--x---x--x-------------------------|
A|-7-7--9--9---12-12--11-11---7-7--9--9---10-10--11-11------------------------|
E|----------------------------------------------------------------------------|

Verse 1
Guitar 1 
e|----------------------------------------------------------------------------|
B|----------------------------------------------------------------------------|
G|-4-4-------------------4-4-----------------11-------------------------------|
D|-4-4--6-6--7-7--2-2----4-4--6-6--7-7--2-2--x--------------------------------|
A|-2-2--6-6--7-7--2-2----2-2--6-6--7-7--2-2--9--------------------------------|
E|------4-4--5-5--0-0---------4-4--5-5--0-0-----------------------------------|

e|----------------------------------------------------------------------------|
B|----------------------------------------------------------------------------|
G|-4-4-------------------4-4--------------------------------------------------|
D|-4-4--6-6--7-7--2-2----4-4--6-6--7-7----------------------------------------|
A|-2-2--6-6--7-7--2-2----2-2--6-6--7-7----------------------------------------|
E|------4-4--5-5--0-0---------4-4--5-5----------------------------------------|

Guitar 2
e|----------------------------------------------------------------------------|
B|----------------------------------------------------------------------------|
G|-4-4--4-4--4-4--4-4----4-4--4-4--4-4--4-4-----------------------------------|
D|-x-x--x-x--x-x--x-x----x-x--x-x--x-x--x-x-----------------------------------|
A|-2-2--2-2--2-2--2-2----2-2--2-2--2-2--2-2-----------------------------------|
E|----------------------------------------------------------------------------|

e|----------------------------------------------------------------------------|
B|----------------------------------------------------------------------------|
G|-4-4--4-4--4-4--4-4----9-9--11-11--14-14------------------------------------|
D|-x-x--x-x--x-x--x-x----x-x--x--x---x--x-------------------------------------|
A|-2-2--2-2--2-2--2-2----7-7--9--9---12-12------------------------------------|
E|----------------------------------------------------------------------------|

Chorus
Guitar 1
e|----------------------------------------------------------------------------|
B|----------------------------------------------------------------------------|
G|-44444444--------44466699884466-44444444--------44466699884466--------------|
D|-4444444466666666xxxxxxxxxxxxxx-4444444466666666xxxxxxxxxxxxxx--------------|
A|-222222226666666622244477662244-222222226666666622244477662244--------------|
E|---------44444444-----------------------44444444----------------------------|

Guitar 2
e|---7-9-7----7-9-7----7-9-7----7-9-7----7-9-7-9-9-9-12-12-11-11-7-7-9-9------|
B|-7--------7--------7--------7--------7--------------------------------------|
G|----------------------------------------------------------------------------|
D|----------------------------------------------------------------------------|
A|----------------------------------------------------------------------------|
E|----------------------------------------------------------------------------|

e|---7-9-7----7-9-7----7-9-7----7-9-7----7-9-7-9-9-9-12-12-11-11-7-7-9-9------|
B|-7--------7--------7--------7--------7--------------------------------------|
G|----------------------------------------------------------------------------|
D|----------------------------------------------------------------------------|
A|----------------------------------------------------------------------------|
E|----------------------------------------------------------------------------|

Interlude
Guitar 1
e|----------------------------------------------------------------------------|
B|----------------------------------------------------------------------------|
G|-4-4------------------------------------------------------------------------|
D|-4-4--6-6--7-7--2-2---------------------------------------------------------|
A|-2-2--6-6--7-7--2-2---------------------------------------------------------|
E|------4-4--5-5--0-0---------------------------------------------------------|
   . .  . .  . .  . . 

Guitar 2
e|----------------------------------------------------------------------------|
B|----------------------------------------------------------------------------|
G|-9-9--11-11--14-14--13-13---------------------------------------------------|
D|-x-x--x--x---x--x---x--x----------------------------------------------------|
A|-7-7--9--9---12-12--11-11---------------------------------------------------|
E|----------------------------------------------------------------------------|

Verse 2
Guitar 1
e|----------------------------------------------------------------------------|
B|----------------------------------------------------------------------------|
G|-------------------------4-4------------------------------------------------|
D|-------------------------4-4--6-6--7-7--------------------------------------|
A|-------------------------2-2--6-6--7-7--------------------------------------|
E|------------------------------4-4--5-5--------------------------------------|

e|----------------------------------------------------------------------------|
B|----------------------------------------------------------------------------|
G|-444-----------------444-----------------444-----------------4-4--4-4--4-4--|
D|-444-666-777-2222222-444-666-777-2222222-444-666-777-2222222-4-4--4-4--4-4--|
A|-222-666-777-2222222-222-666-777-2222222-222-666-777-2222222-2-2--2-2--2-2--|
E|-----444-555-0000000-----444-555-0000000-----444-555-0000000----------------|
   ... ... ... ....... ... ... ... ....... ... ... ... .......

Guitar 2
e|---7--9-11-12-----7---------------------------------------------------------|
B|-7--------------------------------------------------------------------------|
G|-------------------------9-9--11-11--14-14----------------------------------|
D|-------------------------x-x--x--x---x--x-----------------------------------|
A|-------------------------7-7--9--9---12-12----------------------------------|
E|----------------------------------------------------------------------------|

e|----------------------------------------------------------------------------|
B|----------------------------------------------------------------------------|
G|-----------------------------------------4444444444444444--9-9--11-11-14--14|
D|-----------------------------------------xxxxxxxxxxxxxxxx--x-x--x--x--x---x-|
A|-----------------------------------------2222222222222222--7-7--9--9--12--12|
E|----------------------------------------------------------------------------|
                                           ................

Chorus
Guitar 1
e|----------------------------------------------------------------------------|
B|----------------------------------------------------------------------------|
G|-44444444--------44466699884466-44444444--------44466699884466--------------|
D|-4444444466666666xxxxxxxxxxxxxx-4444444466666666xxxxxxxxxxxxxx--------------|
A|-222222226666666622244477662244-222222226666666622244477662244--------------|
E|---------44444444-----------------------44444444----------------------------|

Guitar 2
e|---7-9-7----7-9-7----7-9-7----7-9-7----7-9-7-9-9-9-12-12-11-11-7-7-9-9------|
B|-7--------7--------7--------7--------7--------------------------------------|
G|----------------------------------------------------------------------------|
D|----------------------------------------------------------------------------|
A|----------------------------------------------------------------------------|
E|----------------------------------------------------------------------------|

e|---7-9-7----7-9-7----7-9-7----7-9-7----7-9-7-9-9-9-12-12-11-11-7-7-9-9------|
B|-7--------7--------7--------7--------7--------------------------------------|
G|----------------------------------------------------------------------------|
D|----------------------------------------------------------------------------|
A|----------------------------------------------------------------------------|
E|----------------------------------------------------------------------------|

Bridge
Guitar 1
e|----------------------------------------------------------------------------|
B|----------------------------------------------------------------------------|
G|----------------------------------------------------------------------------|
D|----------------------------------------------------------------------------|
A|----------------------------------------------------------------------------|
E|----------------------------------------------------------------------------|

e|----------------------------------------------------------------------------|
B|----------------------------------------------------------------------------|
G|------------------6666666666666666------------------66666666-99999999-------|
D|-7777777777777777-6666666666666666-7777777777777777-66666666-99999999-------|
A|-7777777777777777-4444444444444444-7777777777777777-44444444-77777777-------|
E|-5555555555555555------------------5555555555555555-------------------------|

Guitar 2
e|---7-------7---12-----7-------7---12-----7------7---12-----7------7---12\---|
B|-7-------7----------7-------7----------7------7----------7------7-----------|
G|-----9-------9----------9-------9----------9------9----------9------9-------|
D|----------------------------------------------------------------------------|
A|----------------------------------------------------------------------------|
E|----------------------------------------------------------------------------|

Solo
Guitar 1
e|----------------------------------------------------------------------------|
B|----------------------------------------------------------------------------|
G|-4-4-----------------11-9--4-4----------------------------------------------|
D|-4-4--6-6--7-7--2-2--x--x--4-4--6-6--7-7------------------------------------|
A|-2-2--6-6--7-7--2-2--9--7--2-2--6-6--7-7------------------------------------|
E|------4-4--5-5--0-0-------------4-4--5-5------------------------------------|

e|----------------------------------------------------------------------------|
B|----------------------------------------------------------------------------|
G|-44444444--------44466699884466-44444444--------44466699884466--------------|
D|-4444444466666666xxxxxxxxxxxxxx-4444444466666666xxxxxxxxxxxxxx--------------|
A|-222222226666666622244477662244-222222226666666622244477662244--------------|
E|---------44444444-----------------------44444444----------------------------|

Guitar 2
e|----------------------------------------------------------------------------|
B|----------------------------------------------------------------------------|
G|--------------------------9-9--11-11--14-14---------------------------------|
D|--------------------------x-x--x--x---x--x----------------------------------|
A|--------------------------7-7--9--9---12-12---------------------------------|
E|----------------------------------------------------------------------------|

e|----------------------12~------------------19~------------------------------|
B|-------7-4~-4-------4------------7-4----------------------------------------|
G|-4-6-4--------6-4-6--------4-6-4-----6-4------------------------------------|
D|-----------------------------------------4----------------------------------|
A|------------------------------------------------\\\\\\\\\\\\\\\\\\\\\\\-----|
E|------------------------------------------------\\\\\\\\\\\\\\\\\\\\\\\-----|

Chorus
Guitar 1
e|----------------------------------------------------------------------------|
B|----------------------------------------------------------------------------|
G|-44444444--------44466699884466-44444444--------44466699884466--------------|
D|-4444444466666666xxxxxxxxxxxxxx-4444444466666666xxxxxxxxxxxxxx--------------|
A|-222222226666666622244477662244-222222226666666622244477662244--------------|
E|---------44444444-----------------------44444444----------------------------|


e|----------------------------------------------------------------------------|
B|----------------------------------------------------------------------------|
G|-66666666--------666888111110106644-66666666--------666888111110106688------|
D|-6666666688888888xxxxxxx-x-x-x-xxxx-6666666688888888xxxxxxx-x-x-x-xxxx------|
A|-44444444888888884446669-9-8-8-4422-44444444888888884446669-9-8-8-4466------|
E|---------66666666---------------------------66666666------------------------|

Guitar 2
e|---9-11-9---9-11-9---9-11-9---9-11-9---9-11-9-11-11-11-14-14-13-13-9-9-11-11|
B|-9--------9--------9--------9--------9--------------------------------------|
G|----------------------------------------------------------------------------|
D|----------------------------------------------------------------------------|
A|----------------------------------------------------------------------------|
E|----------------------------------------------------------------------------|

e|---9-11-9---9-11-9---9-11-9---9-11-9---9-11-9-11-11-11-14-14-13-13-9-9-11-11|
B|-9--------9--------9--------9--------9--------------------------------------|
G|----------------------------------------------------------------------------|
D|----------------------------------------------------------------------------|
A|----------------------------------------------------------------------------|
E|----------------------------------------------------------------------------|

Outro
Guitar 1
e|----------------------------------------------------------------------------|
B|----------------------------------------------------------------------------|
G|-4-4------------------------------------------------------------------------|
D|-4-4--6-6--7-7--2-2---------------------------------------------------------|
A|-2-2--6-6--7-7--2-2---------------------------------------------------------|
E|------4-4--5-5--0-0---------------------------------------------------------|

Guitar 2
e|/\/\/\/\/\/\/\/\/\/\--------------------------------------------------------|
B|/\/\/\/\/\/\/\/\/\/\--------------------------------------------------------|
G|----------------------------------------------------------------------------|
D|----------------------------------------------------------------------------|
A|----------------------------------------------------------------------------|
E|----------------------------------------------------------------------------|

| /  slide up
| \  slide down
| h  hammer-on
| p  pull-off
| ~  vibrato
| +  harmonic
| x  Mute note
| .  Palm Mute
===============================================================================
comments
We did not receive enough feedback on this tab! Please rate:
print report bad tab
1 2 3 4 5
I want to post or [tab]
guest
You may want to rate the tab now too:
select rating
Please do not post tabs as comments. Select "correction" instead!