Oops, an error
Loading. Please wait.

So Hott Bass Tab

ver1
ver1

Whole song

Interactive

More versions @911Tabs.com
3,102 views 1 this week
no commentswrite comment
1 2 3 4 5
please rate
Autoscroll
+/-
esc
set tempo
stop
Contributor
Difficulty
Tuning
intermediate
D A D G B E
Hey! There's an official Ultimate Guitar app which is ideal
for learning songs when you're away from computer. Get the app
WARNING: You are trying to view
                                    content from Ultimate-Guitar.com
                                    in an unauthorized application,
                                    which is prohibited.

                                    Please use an official Ultimate
                                    Guitar Tabs application for iPhone,
                                    iPad or Android to access legitimate
                                    chords, guitar, bass, and drum tabs
                                    from Ultimate-Guitar.com database.

                                    Type "ultimate guitar tabs" in Apple
                                    App Store's or Android Market's
                                    search to find the application.
-------------------------------------------------------------------------------
			     SO HOTT - Kid Rock
-------------------------------------------------------------------------------

Tabbed By : Isaias Garcia (TexasFury)

Tuning: Drop D




     W                   W                   W                   W                 
G||-------------------|-------------------|-------------------|-------------------|
D||-------------------|-------------------|-------------------|-------------------|
A||-------------------|-------------------|-------------------|-------------------|
D||-------------------|-------------------|-------------------|-------------------|
A||-------------------|-------------------|-------------------|-------------------|


  W                   W                   W                   W                   W                 
-------------------|-------------------|-------------------|-------------------|-------------------|
-------------------|-------------------|-------------------|-------------------|-------------------|
-------------------|-------------------|-------------------|-------------------|-------------------|
-------------------|-------------------|-------------------|-------------------|-------------------|
-------------------|-------------------|-------------------|-------------------|-------------------|


  W                   W                   W                   W                   W                 
-------------------|-------------------|-------------------|-------------------|-------------------|
-------------------|-------------------|-------------------|-------------------|-------------------|
-------------------|-------------------|-------------------|-------------------|-------------------|
-------------------|-------------------|-------------------|-------------------|-------------------|
-------------------|-------------------|-------------------|-------------------|-------------------|


  W                   W                   W                   W                   W                 
-------------------|-------------------|-------------------|-------------------|-------------------|
-------------------|-------------------|-------------------|-------------------|-------------------|
-------------------|-------------------|-------------------|-------------------|-------------------|
-------------------|-------------------|-------------------|-------------------|-------------------|
-------------------|-------------------|-------------------|-------------------|-------------------|


  W                   W                   W                   W                   W                 
-------------------|-------------------|-------------------|-------------------|-------------------|
-------------------|-------------------|-------------------|-------------------|-------------------|
-------------------|-------------------|-------------------|-------------------|-------------------|
-------------------|-------------------|-------------------|-------------------|-------------------|
-------------------|-------------------|-------------------|-------------------|-------------------|


  E  E  E  E  E  E  E  E     E  E  E  E  E  E  E  E     E  E  E  E  E  E  E    E   
--7--7--7--7--7--7--7--7--|--7--7--7--7--7--7--7--7--|--7--7--7--7--7--7--7--5g7--|
--------------------------|--------------------------|----------------------------|
--------------------------|--------------------------|----------------------------|
--------------------------|--------------------------|----------------------------|
--------------------------|--------------------------|----------------------------|


  E  E  E  E  E  E  Q       Q    Q    E  E  E  E     E  E  E  E  E  E  E  E   
--L--5-----5-------------|------------------------|--------------------------|
--------7-----7--6--5----|------------------------|--------------------------|
-------------------------|-------5----L-----------|-----------3--L-----------|
-------------------------|--0------------0--2--3--|--L--3--3--------5--L--3--|
-------------------------|------------------------|--------------------------|


  Q    Q    E  E  E  E     E  E  E  E  E  E  E  E     Q    Q    E  E  E  E   
------------------------|--------------------------|------------------------|
------------------------|--------------------------|------------------------|
-------5----L-----------|-----------3--L--2--L-----|-------5----L-----------|
--0------------0--2--3--|--L--3--3--------------3--|--0------------0--2--3--|
------------------------|--------------------------|------------------------|


  E  E  E  E  E  E  E  E     Q    Q    E  E  E  E     E  E  E  E  E  E  E  E     W                 
--------------------------|------------------------|--------------------------|-------------------|
--------------------------|------------------------|--------------------------|-------------------|
-----------3--L-----------|-------5----L-----------|-----------3--L-----------|-------------------|
--L--3--3--------5--L--3--|--0------------0--2--3--|--L--3--3--------5--L--3--|--0----------------|
--------------------------|------------------------|--------------------------|-------------------|


  H.           Q       W                   W                   E  E  E  E  E  E  E  E   
--------------------|-------------------|-------------------|--------------------------|
--------------------|-------------------|-------------------|--------------------------|
--------------------|-------------------|-------------------|--------------------------|
--L-----------------|-------------------|-------------------|-----0-----0-----0-----0--|
--------------------|-------------------|-------------------|--------------------------|


  E  E  E  E  E  E  Q       W                   W                   Q    Q    E  E  E  E   
-------------------------|-------------------|-------------------|------------------------|
-------------------------|-------------------|-------------------|------------------------|
-------------------------|-------------------|-------------------|-------5----L-----------|
-----0-----0-----0-------|-------------------|-------------------|--0------------0--2--3--|
-------------------------|-------------------|-------------------|------------------------|


  E  E  E  E  E  E  E  E     Q    Q    E  E  E  E     E  E  E  E  E  E  E  E   
--------------------------|------------------------|--------------------------|
--------------------------|------------------------|--------------------------|
-----------3--L-----------|-------5----L-----------|-----------3--L-----------|
--L--3--3--------5--L--3--|--0------------0--2--3--|--L--3--3--------5--L--3--|
--------------------------|------------------------|--------------------------|


  Q    Q    E  E  E  E     E  E  E  E  E  E  E  E     E  E  Q    E  E  Q       E  E  Q    H         
------------------------|--------------------------|------------------------|----------------------|
------------------------|--------------------------|------------------------|----------------------|
-------5----L-----------|-----------3--L-----------|------------------------|----------------------|
--0------------0--2--3--|--L--3--3--------5--L--3--|--0--0-------0--0-------|--0--0----------------|
------------------------|--------------------------|------------------------|----------------------|


  W                   W                   W                   W                   W                 
-------------------|-------------------|-------------------|-------------------|-------------------|
-------------------|-------------------|-------------------|-------------------|-------------------|
-------------------|-------------------|-------------------|-------------------|-------------------|
-------------------|-------------------|-------------------|-------------------|-------------------|
-------------------|-------------------|-------------------|-------------------|-------------------|


  W                   W                   W                   W                   W                 
-------------------|-------------------|-------------------|-------------------|-------------------|
-------------------|-------------------|-------------------|-------------------|-------------------|
-------------------|-------------------|-------------------|-------------------|-------------------|
-------------------|-------------------|-------------------|-------------------|-------------------|
-------------------|-------------------|-------------------|-------------------|-------------------|


  W                   W                   E  E  E  E  E  E  E  E     E  E  E  E  E  E  Q     
-------------------|-------------------|--------------------------|-------------------------|
-------------------|-------------------|--------------------------|-------------------------|
-------------------|-------------------|--------------------------|-------------------------|
-------------------|-------------------|-----0-----0-----0-----0--|-----0-----0-----0-------|
-------------------|-------------------|--------------------------|-------------------------|


  W                   W                   Q    Q    E  E  E  E     E  E  E  E  E  E  E  E   
-------------------|-------------------|------------------------|--------------------------|
-------------------|-------------------|------------------------|--------------------------|
-------------------|-------------------|-------5----L-----------|-----------3--L-----------|
-------------------|-------------------|--0------------0--2--3--|--L--3--3--------5--L--3--|
-------------------|-------------------|------------------------|--------------------------|


  Q    Q    E  E  E  E     E  E  E  E  E  E  E  E     Q    Q    E  E  E  E   
------------------------|--------------------------|------------------------|
------------------------|--------------------------|------------------------|
-------5----L-----------|-----------3--L--2--L-----|-------5----L-----------|
--0------------0--2--3--|--L--3--3--------------3--|--0------------0--2--3--|
------------------------|--------------------------|------------------------|


  E  E  E  E  E  E  E  E     W                   Q    Q    Q    Q       Q    Q    E  E  E  E   
--------------------------|-------------------|----------------------|------------------------|
--------------------------|-------------------|----------------------|------------------------|
-----------3--L-----------|-------------------|----------------------|-------5----L-----------|
--L--3--3--------5--L--3--|-------------------|----------------------|--0------------0--2--3--|
--------------------------|-------------------|-------3----3----3----|------------------------|


  E  E  E  E  E  E  E  E     Q    Q    E  E  E  E     E  E  E  E  E  E  E  E   
--------------------------|------------------------|--------------------------|
--------------------------|------------------------|--------------------------|
-----------3--L-----------|-------5----L-----------|-----------3--L--2--L-----|
--L--3--3--------5--L--3--|--0------------0--2--3--|--L--3--3--------------3--|
--------------------------|------------------------|--------------------------|


  Q    Q    E  E  E  E     E  E  E  E  E  E  E  E     Q    Q    E  E  E  E     E  E  Q    H         
------------------------|--------------------------|------------------------|----------------------|
------------------------|--------------------------|------------------------|----------------------|
-------5----L-----------|-----------3--L-----------|-------5----L-----------|----------------------|
--0------------0--2--3--|--L--3--3--------5--L--3--|--0------------0--2--3--|--L--3----------------|
------------------------|--------------------------|------------------------|----------------------|


  Q    Q    E  E  E  E     E  E  E  E  E  E  E  E     Q    Q    E  E  E  E   
------------------------|--------------------------|------------------------|
------------------------|--------------------------|------------------------|
-------5----L-----------|-----------3--L-----------|-------5----L-----------|
--0------------0--2--3--|--L--3--3--------5-----3--|--0------------0--2--3--|
------------------------|--------------------------|------------------------|


  E  E  Q    Q    Q       Q    Q    E  E  E  E     E  E  E  E  E  E  E  E   
-----------------------|------------------------|--------------------------|
-----------------------|------------------------|--------------------------|
-----------------------|-------5----L-----------|-----------3--L-----------|
--L--3-----------------|--0------------0--2--3--|--L--3--3--------5--L--3--|
--------3----3----3----|------------------------|--------------------------|


  E  E  Q    E  E  Q       E  E  Q    H           Q    Q    E  E  E  E     E  E  Q    Q    Q     
------------------------|----------------------|------------------------|-----------------------|
------------------------|----------------------|------------------------|-----------------------|
------------------------|----------------------|-------5----L-----------|--------5----5----5----|
--0--0-------0--0-------|--0--0----------------|--0------------0--2--3--|--L--3-----------------|
------------------------|----------------------|------------------------|-----------------------|


  Q    Q    E  E  E  E     Q    Q    H           Q    Q    E  E  E  E     Q    Q    Q    Q     
------------------------|---------------------|------------------------|----------------------|
------------------------|---------------------|------------------------|----------------------|
-------5----L-----------|---------------------|-------5----L-----------|-------5----5----5----|
--0------------0--2--3--|--L------------------|--0------------0--2--3--|--L-------------------|
------------------------|---------------------|------------------------|----------------------|


  Q    Q    E  E  E  E     E  E  E  E  E  E  E  E     Q    Q    E  E  E  E   
------------------------|--------------------------|------------------------|
------------------------|--------------------------|------------------------|
-------5----L-----------|--------------------------|-------5----L-----------|
--0------------0--2--3--|--L--1--1--1--1--1--1--1--|--0------------0--2--3--|
------------------------|--------------------------|------------------------|


  E  E  E  E  E  E  E  E     Q    Q    E  E  E  E     E  E  E  E  E  E  E  E   
--------------------------|------------------------|--------------------------|
--------------------------|------------------------|--------------------------|
--------------------------|-------5----L-----------|--------------------------|
--L--5--7--5--L--5--L--3--|--0------------0--2--3--|--L--5--7--5--L--5--L--3--|
--------------------------|------------------------|--------------------------|


  Q    Q    E  E  E  E     E  E  E  E  E  E  E  E     Q    Q    E  E  E  E   
------------------------|--------------------------|------------------------|
------------------------|--------------------------|------------------------|
-------5----L-----------|--------------------------|-------5----L-----------|
--0------------0--2--3--|--L--5--7--5--L--5--L--3--|--0------------0--2--3--|
------------------------|--------------------------|------------------------|


  E  E  E  E  E  E  E  E     W                   W                   W                 
--------------------------|-------------------|-------------------|-------------------|
--------------------------|-------------------|-------------------|-------------------|
--------------------------|-------------------|-------------------|-------------------|
--L--5--7--5--L--5--L--3--|--0----------------|--L----------------|--L----------------|
--------------------------|-------------------|-------------------|-------------------|


  W                  
-------------------||
-------------------||
-------------------||
--L----------------||
-------------------||




Duration Legend
---------------
W - whole
H - half
Q - quarter
E - 8th
S - 16th
T - 32nd
X - 64th
. - note dotted
|-n-|  - n-tuplets


Tablature Legend
----------------
L - tied note
x - dead note
g - grace note
(n) - ghost note
> - accentuded note
NH - natural harmonic
AH - artificial harmonic
TH - tapped harmonic
SH - semi harmonic
PH - pitch harmonic
h - hammer on
p - pull off
b - bend
br - bendRelease
pb - preBend
pbr - preBendRelease
brb - bendReleaseBend
\n/ - tremolo bar dip
\n - tremolo bar dive
-/n - tremolo bar Release up
/n\ - tremolo bar inverted dip
/n - tremolo bar return
-\n - tremolo bar Release down
S - shift slide
s - legato slide
/ -  slide into from below or out of upwards
\ -  slide into from above or out of downwards
~ - vibrato
W - wide vibrato
tr - trill
TP - tremolo picking
T - tapping
S - slap
P - pop
< - fade in
^ - brush up
v - brush down
comments
We did not receive enough feedback on this tab! Please rate:
print report bad tab
1 2 3 4 5
I want to post or [tab]
guest
You may want to rate the tab now too:
select rating
Please do not post tabs as comments. Select "correction" instead!