Oops, an error
Loading. Please wait.

Endangered Species Tab

3,167 views 1 this week
no commentswrite comment
1 2 3 4 5
please rate
Autoscroll
+/-
esc
set tempo
stop
Contributor
Difficulty
Tabbers playing skills
advanced
intermediate ++
Hey! There's an official Ultimate Guitar app which is ideal
for learning songs when you're away from computer. Get the app
WARNING: You are trying to view
                                    content from Ultimate-Guitar.com
                                    in an unauthorized application,
                                    which is prohibited.

                                    Please use an official Ultimate
                                    Guitar Tabs application for iPhone,
                                    iPad or Android to access legitimate
                                    chords, guitar, bass, and drum tabs
                                    from Ultimate-Guitar.com database.

                                    Type "ultimate guitar tabs" in Apple
                                    App Store's or Android Market's
                                    search to find the application.
Band:kiko Loureiro
song:endangered species
tuning:standard

this song was exported from guitarpro
since there's not a normal tab for everyone
the legend is at the bottom for the symbols
you dont understand

hope you enjoy the tab :)

             W                 H
E||-------|--x--------------------------|
B||-------|--x--------------------------|
G||-------|--x--------------------------|
D||-------|--x\-------------------------|
A||-------|--x\-------------------------|
E||-------|--x\-------------------------|


  W.
---------------------|
---------------------|
--7----9-----10---14-|
---------------------|
--5----7-----8--- 12-|
---------------------|

                    PMPM PM  PM  PM PM PM  PM
   H.           E   S S  E   E   E  E  E   E
---------------------------------------------|
---------------------------------------------|
--13-----------------------------------------|
---------------------------------------------|
--11------------7--10-8--7-------------------|
----------------------------12--10--8--7--10-|


   W.
--------------------|
--------------------|
--10----12-----14---|
--------------------|
---8----10-----12---|
--------------------|

   W.
---------------------|
--14b----------------|
---------------------|
--12-----------------|
---------------------|
---------------------|


  S S E  E  E  E  E  E  E  E  Q    E
--------------------------------------|
--8-6-5-------------------------------|
---------7--5--3--------------3----2--|
------------------7--5--3--2----------|
--------------------------------------|
--------------------------------------|


  S S E  E  E  E  E  E  E  E  Q    E
------------------------------6----5--|
--8-6-5-------------------------------|
---------7--5--3----------------------|
------------------7--5--3--2----------|
--------------------------------------|
--------------------------------------|


   S  S E   E   E  E   E   E  E  E   E  E  E
---------------------------------------------|
---------------------------------------------|
--12-10-9------------------------------------|
-----------12--10--8-------------------------|
----------------------12--10--8--7--10--8--7-|
---------------------------------------------|


  W.
-------------------|
-------------------|
-------------------|
--7----------------|
--5----------------|
--5----------------|


    NH     NH     NH     NH     \1/
    Q      Q      Q      Q.     Q    E
----------------<>5----<>7------L----L--|
--<>7----<>5----<>5----<>7------L----L--|
--<>7----<>5----------------------------|
---21-----------------------------------|
----------------------------------------|
----------------------------------------|


  E    E   E  E   E   E  E  E    E  E    E
--7h--10------7---------------------7h--10h--|
---------------------------------------------|
----------11-----11p--7-----7h--11-----------|
-------------------------9-------------------|
---------------------------------------------|
---------------------------------------------|


  E    E   E  E   E   E  E  E   E    E   E
--7h--10------7------------------------------|
---------------------------------------------|
----------11-----11p--7-----7h--9h--11p--9p--|
-------------------------9-------------------|
---------------------------------------------|
---------------------------------------------|


  Q.      E  Q    Q.      Q.
---------------------------------|
---------------------------------|
--6~---------7----9~-------------|
---------------------------------|
---------------------------------|
---------------------------------|


   H.              H.
---------------------------------|
---------------------------------|
--12br------------11~------------|
---------------------------------|
---------------------------------|
---------------------------------|


  S  S E  E  E  E  E  E  E   E  E  E  E
-----------------------------------------|
--7h-8-7---------------------------------|
----------9--------9--7------------------|
-------------9--7--------9---------------|
----------------------------10--9--7--9--|
-----------------------------------------|


   E  E  E   E   E   E   E   E   E   S   S
------------------------12--14--15--14h-15p-1-|
--------------------12------------------------|
---------9--11--12----------------------------|
------9---------------------------------------|
--10------------------------------------------|
----------------------------------------------|


   H.             Q     Q     Q
--10~------------10----12----14----|
-----------------------------------|
-----------------------------------|
-----------------------------------|
-----------------------------------|
-----------------------------------|


  H.             Q    Q    Q
--9~------------10----9----7----|
--------------------------------|
--------------------------------|
--------------------------------|
--------------------------------|
--------------------------------|


  E    E   E  E   E   E  E  E    E  E    E
--7h--10------7---------------------7h--10h--|
---------------------------------------------|
----------11-----11p--7-----7h--11-----------|
-------------------------9-------------------|
---------------------------------------------|
---------------------------------------------|


  E    E   E  E   E   E  E  E   E    E   E
--7h--10------7------------------------------|
---------------------------------------------|
----------11-----11p--7-----7h--9h--11p--9p--|
-------------------------9-------------------|
---------------------------------------------|
---------------------------------------------|


  Q.     E  Q    Q.     Q.
-------------------------------|
-------------------------------|
--6--------7----9--------------|
-------------------------------|
-------------------------------|
-------------------------------|


   H.              H.
---------------------------------|
---------------------------------|
--12br------------11~------------|
---------------------------------|
---------------------------------|
---------------------------------|


  S  S E  E  E  E  E  E  E   E  E  E  E
-----------------------------------------|
--7h-8-7---------------------------------|
----------9--------9--7------------------|
-------------9--7--------9---------------|
----------------------------10--9--7--9--|
-----------------------------------------|


   E  E  E   E   E   E   E   E   E   S   S
------------------------12--14--15--14h-15p-1-|
--------------------12------------------------|
---------9--11--12----------------------------|
------9---------------------------------------|
--10------------------------------------------|
----------------------------------------------|


   H.             Q     Q     Q
------------------------------------|
--15~------------15----17----19S----|
------------------------------------|
------------------------------------|
------------------------------------|
------------------------------------|


   H.             Q      Q     Q
------------------------------------|
--14~------------14b----14----12----|
------------------------------------|
------------------------------------|
------------------------------------|
------------------------------------|


   H.             H.
--------------------------------|
--/3~------------/5~------------|
--------------------------------|
--------------------------------|
--------------------------------|
--------------------------------|


   H.              H.
--------------------------------|
--/7~------------/10------------|
--------------------------------|
--------------------------------|
--------------------------------|
--------------------------------|


    H.              H.
----------------------------------|
--/12~------------/14~------------|
----------------------------------|
----------------------------------|
----------------------------------|
----------------------------------|


    H.             Q     Q     Q
------------------------------------|
--/15~------------19----17----15----|
------------------------------------|
------------------------------------|
------------------------------------|
------------------------------------|


   Q      Q     Q     Q      Q     Q
---------14----17-----------14------------|
--17b----------------17b----------17b~----|
------------------------------------------|
------------------------------------------|
------------------------------------------|
------------------------------------------|


   S  S  S  S  S  S  S. S. S. S. S. S  S  S.
-----------------------------------14-19-17-1-|
-----------------------------15-17------------|
--------------------14-16-18------------------|
-----------14-16-17---------------------------|
--14-16-17------------------------------------|
----------------------------------------------|


   S. S. S. S. S. S. S. S. S. S. S. S. S. S.
----------------------------------------------|
----------------------------------------------|
--14----------------------16-14---------------|
-----17-16-14-------------------17-16-14------|
--------------17-15-14-------------------17-1-|
-----------------------17---------------------|


  E    E   E  E   E   E  E  E    E  E    E
--7h--10------7---------------------7h--10h--|
---------------------------------------------|
----------11-----11p--7-----7h--11-----------|
-------------------------9-------------------|
---------------------------------------------|
---------------------------------------------|

   T    T
   E    E   E  E   E   E  E  E   E    E   E
--15S--14--10--7-----------------------------|
---------------------------------------------|
------------------11p--7-----7h--9h--11p--9p-|
--------------------------9------------------|
---------------------------------------------|
---------------------------------------------|


  Q.      E  Q    Q.      Q.
---------------------------------|
---------------------------------|
--6~---------7----9~-------------|
---------------------------------|
---------------------------------|
---------------------------------|


   H.              H.
---------------------------------|
---------------------------------|
--12br------------11~------------|
---------------------------------|
---------------------------------|
---------------------------------|


  S  S E  E  E  E  E  E  E   E  E  E  E
-----------------------------------------|
--7h-8-7---------------------------------|
----------9--------9--7------------------|
-------------9--7--------9---------------|
----------------------------10--9--7--9--|
-----------------------------------------|


   E  E  E   E   E   E   E   E   E   S   S
------------------------12--14--15--14h-15p--|
--------------------12-----------------------|
---------9--11--12---------------------------|
------9--------------------------------------|
--10-----------------------------------------|
---------------------------------------------|


   Q.      Q     S  S   E.   E.    S  S   E
-------------------10S------12S------14S-----|
---------------------------------------------|
---------------------------------------------|
---------------------------------------------|
---------------------------------------------|
---------------------------------------------|


  Q.     Q     S   S  E.  E.  S S E  S S
--------------10~---------9-----7------3-|
-----------------------------------------|
-----------------------------------------|
-----------------------------------------|
-----------------------------------------|
-----------------------------------------|


   H.             H.
--------------------------------|
--/3~------------/5~------------|
--------------------------------|
--------------------------------|
--------------------------------|
--------------------------------|


   H.              H.
--------------------------------|
--/7~------------/10------------|
--------------------------------|
--------------------------------|
--------------------------------|
--------------------------------|


    H.              H.
----------------------------------|
--/12~------------/14~------------|
----------------------------------|
----------------------------------|
----------------------------------|
----------------------------------|


    H.             Q     Q     Q
------------------------------------|
--/15~------------19----17----15----|
------------------------------------|
------------------------------------|
------------------------------------|
------------------------------------|


   H.             E   E   E   E   E   E
-----------------------------------------|
--19b------------19--18--17--15--17--15--|
-----------------------------------------|
-----------------------------------------|
-----------------------------------------|
-----------------------------------------|


   E    E    E    Q.      H.
---------------------------------------|
--17b--17b--15b---L--------------------|
---------------------------------------|
---------------------------------------|
---------------------------------------|
---------------------------------------|


      T               T           T
   S. S.  S.  S.  S.  S.  S.  S.  S.  S.  S.
--14-15p-14p-12p-10h-15p-10h-15h-17p-15p-10h-|
---------------------------------------------|
---------------------------------------------|
---------------------------------------------|
---------------------------------------------|
---------------------------------------------|


       T                      T
   S.  S.  S.  S.  S. S.  S.  S.  S   S  S
----------------------------------------------|
--14h-15p-14p-12p-10--------------------------|
---------------------14h-14h-16p-14p-11-------|
----------------------------------------14h-1-|
----------------------------------------------|
----------------------------------------------|


   Q.      Q    S  S  Q.     Q    S  S
----------------------------------------|
--/3~-----------L-/5~---------------/7~-|
----------------------------------------|
----------------------------------------|
----------------------------------------|
----------------------------------------|


  Q.     Q    S  S H.
--------------------------------|
----------------/8--------------|
--------------------------------|
--------------------------------|
--------------------------------|
--------------------------------|


  S  E.  E   E  Q      H.
-------------------------------------|
--7S-----8S-----7S----12~------------|
-------------------------------------|
-------------------------------------|
-------------------------------------|
-------------------------------------|


  S  E.  E   E  Q      H.
-------------------------------------|
--7S-----8S-----7S----14~------------|
-------------------------------------|
-------------------------------------|
-------------------------------------|
-------------------------------------|


   W.                    W.
---------------------|---------------------|
--14b----------------|--12~----------------|
---------------------|---------------------|
---------------------|---------------------|
---------------------|---------------------|
---------------------|---------------------|


   S   S   S   S   S   S   S   S   S   S.  S.
----------------------------------------------|
----------------------------------------------|
----------------------------------------------|
----------------------------------------------|
--10h-12h-14h-16h-17p-16p-14p-12p-10h-12h-14--|h
----------------------------------------------|


   T   T   T                       T
   S   S   S   S   S   S   S   S.  S. S.  S.
---------------------------------------------|
-------------------------------------10h-12h-|
--16h-18p-16p-14p-12p-11h-12h-14h-16---------|
---------------------------------------------|
---------------------------------------------|
---------------------------------------------|


   W.
----~----------------|
---------------------|
--/7S----------------|
---------------------|
--/5S----------------|
---------------------|


  H.             H.
-------------------------------|
-------------------------------|
--9S------------10S------------|
-------------------------------|
--7S-------------8S------------|
-------------------------------|


   W.
---------------------|
---------------------|
--14S----------------|
---------------------|
--12S----------------|
---------------------|


   H.            S S E   E  E  E  E  E  E  E
---------------------------------------------|
---------------------------------------------|
--13-----------------------------------------|
---------------------------------------------|
--11------------10-9-7-----------------------|
------------------------10--8--7--5--8--7--5-|


   W.
---------------------|
---------------------|
--10S----------------|
---------------------|
---8S----------------|
---------------------|


   H.             H.
--------------------------------|
--------------------------------|
--12S------------14S------------|
--------------------------------|
--10S------------12S------------|
--------------------------------|


   W.
--------------------|
--------------------|
--19----------------|
--------------------|
--17----------------|
--------------------|


  S S E  E  E  E  E  E  E  E  Q    E
--------------------------------------|
--8-6-5-------------------------------|
---------7--5--3--------------3----2--|
------------------7--5--3--2----------|
--------------------------------------|
--------------------------------------|


  S S E  E  E  E  E  E  E  E  Q    E
------------------------------6----5--|
--8-6-5-------------------------------|
---------7--5--3----------------------|
------------------7--5--3--2----------|
--------------------------------------|
--------------------------------------|


   S  S E   E   E  E   E   E  E  E   E  E  E
---------------------------------------------|
---------------------------------------------|
--12-10-9------------------------------------|
-----------12--10--8-------------------------|
----------------------12--10--8--7--10--8--7-|
---------------------------------------------|


                          \1/
     W.                   W.
-----------------------|-------------------|
--<>15~----------------|-------------------|
----19-----------------|-------------------|
-----------------------|-------------------|
-----------------------|-------------------|
-----------------------|-------------------|


  H        Q    E  S   S
-------------------------|
-------------------------|
-------------------------|
-------------------9S-10-|
-------------------------|
-------------------------|


   H.            S  S  E
--------------------------|
--10----------------------|
--------------------------|
--10-------------0-10p-9--|
--------------------------|
--------------------------|


  H.           E  S   S
------------------------|
--9---------------------|
------------------------|
--9---------------9S-12-|
------------------------|
------------------------|


   H.            E   S   S
---------------------------|
--11-----------------------|
---------------------------|
--12----------------12S-10-|
---------------------------|
---------------------------|


   H.            E   E
------------------------|
--10--------------------|
------------------------|
--10----------------10--|
------------------------|
------------------------|


  S S S S S S S S S S S S S S S S
----------------------------------|
----------------------------------|
--9-7---9-7---9-7-9-7---9-7---9-7-|
----------------------------------|
----------------------------------|
----------------------------------|


  S S S S S S S S S S S S S S S S
----------------------------------|
----------------------------------|
--7-5---7-5---7-5-9-6---9-6---9-6-|
----------------------------------|
----------------------------------|
----------------------------------|


   H.            E  E
------------------------|
--10--------------------|
------------------------|
--10----------------9h--|
------------------------|
------------------------|


  H.           E   S  S
------------------------|
--9---------------------|
------------------------|
--9---------------12-14-|
------------------------|
------------------------|


   Q.       E    Q.      E
----------------------------|
--11------------15------13--|
----------------------------|
--12S------15S--15----------|
----------------------------|
----------------------------|


   Q     E   H        E
-------------------------|
--10--------10-----------|
-------------------------|
--------10--10-----------|
-------------------------|
-------------------------|


  S S S S S S S S S S S S S S S S
----------------------------------|
----------------------------------|
--9-7---9-7---9-7-9-7---9-7---9-7-|
----------------------------------|
----------------------------------|
----------------------------------|


  S S S S S S S S S S S S S S S  S
-----------------------------------|
-----------------------------------|
--7-5---7-5---7-5-9-6---9-6---9-14-|
-----------------------------------|
-----------------------------------|
-----------------------------------|


   Q.      S   S  Q.       E
------------------------------|
------------------------------|
--10-------------14-----------|
--12------10S-12-12S------15--|
------------------------------|
------------------------------|


   W
--------------------|
--15----------------|
--------------------|
--15----------------|
--------------------|
--------------------|


   S  S  S  S  S  S  S  S  S  S  S  S  S  S
----------------------------------------------|
--------10----11-10----10-------10----11-10---|
-----10----10-------10-------10----10-------1-|
--12----------------------12------------------|
----------------------------------------------|
----------------------------------------------|


   S S S S  S S S S  S S S S  S S S S
--------------------------------------|
-------8---10-8---8------8---10-8---8-|
-----9---9------9------9---9------9---|
--11----------------11----------------|
--------------------------------------|
--------------------------------------|


   S  S  S  S  S  S  S  S  S  S  S  S  S  S
---------------------------------------------|
--------10----11-10----10-------10----11-10--|
-----10----10-------10-------10----10--------|
--12----------------------12-----------------|
---------------------------------------------|
---------------------------------------------|


   S  S  S  S  S  S  S  S  S  S  S  S  S  S
---------------------------------------------|
--------15----14-------13----12-------11-----|
-----14-------------14-------------14--------|
--12-------12----12-------12----12-------12--|
---------------------------------------------|
---------------------------------------------|


   S  S  S  S  S  S  S  S  S  S  S  S  S  S
---------------------------------------------|
--------10----11-10----10-------10----11-10--|
-----10----10-------10-------10----10--------|
--12----------------------12-----------------|
---------------------------------------------|
---------------------------------------------|


   S S S S  S S S S  S S S S  S S S S
--------------------------------------|
-------8---10-8---8------8---10-8---8-|
-----9---9------9------9---9------9---|
--11----------------11----------------|
--------------------------------------|
--------------------------------------|


   S  S  S  S  S  S  S  S  S  S  S  S  S  S
---------------------------------------------|
--------10----11-10----10-------10----11-10--|
-----10----10-------10-------10----10--------|
--12----------------------12-----------------|
---------------------------------------------|
---------------------------------------------|


   S  S  S  S  S  S  S  S  S  S  S  S  S  S
--------------------------------------------1-|
--------15----14-------14----15-------15------|
-----14-------------14-------------14---------|
--12-------12----12-------12----12-------12---|
----------------------------------------------|
----------------------------------------------|


   H          H
-------------------------|
--17b--------17b~--------|
-------------------------|
-------------------------|
-------------------------|
-------------------------|


   Q.       E   H
-----------13-------------|
--15b----------15~--------|
--------------------------|
--------------------------|
--------------------------|
--------------------------|


   S  S  S  S  S  S  S  S  S  T   T   S  S  S
--------13-17-16-15-13-12-15-13h-15p-13-------|
-----15------------------------------------13-|
--14------------------------------------12----|
----------------------------------------------|
----------------------------------------------|
----------------------------------------------|


   S  S  S  S  S  T  T  S  S  S  S  S S  S S
---------------------------------------------|
--14----13-----------------------------------|
-----15----12-14-15-15-12----14-12-10-9-10-9-|
--------------------------15-----------------|
---------------------------------------------|
---------------------------------------------|


   |--6--|  |--6--|  |--6--|  |--6--|  |--6--
   S  S  S  S  S  S  S  S  S  S  S  S  S  S
----------------------------------------------|
--------------------------------------10------|
--10----------------10-------------------13-1-|
-----12-11-10-11-12----12-11-10-11-12---------|
----------------------------------------------|
----------------------------------------------|


   |--6--|  |--6--|  |--6--|  |--6--|  |--6--
   S  S  S  S  S  S  S  S  S  S  S  S  S  S
--10----------------10-12-13-10-12-13-10-----|
-----------------------------------------14--|
-----13-12-10-12-13--------------------------|
---------------------------------------------|
---------------------------------------------|
---------------------------------------------|


        3
    E   S T  T  T  T  T T  T  T T  T  T  T  T
--/18S----9-10-11-12-10-9---------------------|
--------------------------11-10-9-------------|
----------------------------------12-10-------|
----------------------------------------12-11-|
----------------------------------------------|
----------------------------------------------|


   Q.       S   S  H
-----------------------------|
-----------------------------|
--12b------12~-10-12~--------|
-----------------------------|
-----------------------------|
-----------------------------|


                                       T
    Q.      T  T  T  T  T  T   T   T   T   T
--------------------------13h-16h-18h-20p-18--|p
-----------------------13---------------------|
--------------------15------------------------|
-----------------15---------------------------|
--/13------13-16------------------------------|
----------------------------------------------|


   H.            S  S  S  S
----------------------20-19-|
----------------------------|
----------------------------|
----------------------------|
----------------------------|
----------------------------|


   S  S  H         Q    E
--18-17-20b----------------|
---------------------------|
---------------------------|
---------------------------|
---------------------------|
---------------------------|


    |--6--|  |--6--|  |--6--|  |--6--|  |--3-
    S  S  S  S  S  S  S  S  S  S  S  S  S  S
--/18-20-18-17-15-12-------------------------|
---------------------15-14-13----------------|
------------------------------15-14-12-------|
---------------------------------------15-14-|
---------------------------------------------|
---------------------------------------------|


           |---3--|  |---3--|
   Q.      S   S  S  S  S   S  S  S  S  S  S
---------------------------------------------|
---------------------------------------------|
------------------------------13-18-17-13----|
-----------------13-15-13h-15-------------15-|
--16------13h-16-----------------------------|
---------------------------------------------|


                             T
   S  S   S  S   S   S   S   S   S   S   S
------------13h-16h-18p-13h-20p-13h-18h-20p-1-|
-----14h-16-----------------------------------|
--15------------------------------------------|
----------------------------------------------|
----------------------------------------------|
----------------------------------------------|


              T           T           T
   |---6--|   |---6---|   |---6---|   |---6--
   S  S   S   S   S   S   S   S   S   S   S
--20-18p-13h-20p-13h-20h-22p-13h-17h-22p-17p-|
---------------------------------------------|
---------------------------------------------|
---------------------------------------------|
---------------------------------------------|
---------------------------------------------|


   7  7   7   7  7   7   7   7   7   7   7  7
   S  S   S   S  S   S   S   S   S   S   S  S
--13------------------------------------------|
-----15h-18p-15-------------------------------|
----------------14h-19p-14h-15p-14p-12p-10----|
-------------------------------------------14-|
----------------------------------------------|
----------------------------------------------|


   H.            E  E
------------------------|
------------------------|
--\6~---------------8b--|
------------------------|
------------------------|
------------------------|


           T      T      T
       |---3--|   |---3--|
  Q    E   E  E   E  E   E  Q
---------------------------------|
---------------------------------|
----------13--8--15--8--13--8----|
---------------------------------|
---------------------------------|
---------------------------------|


                                  T      T
                          |---6---|  |---6---
  Q.       T   T   T   T  S   S   S  S   S
------------------------------------13h-15p--|
-------------------------13h-14h-15----------|
--7~------10h-12h-13h-14---------------------|
---------------------------------------------|
---------------------------------------------|
---------------------------------------------|


       T              T
   |---6---|   |---6--|   |---6--|   |---6--|
   S   S   S   S  S   S   S   S  S   S   S  S
----------------------------------------------|
----------------------------------------------|
--12h-14p-12p-10------------------------------|
-----------------12h-14p-12p-10---------------|
--------------------------------12p-11p-10----|
-------------------------------------------13-|


         T   T               T   T   T
  |---6--|   |---6--| |---6--|   |---6--| |--
  S  S   S   S   S  S S  S   S   S   S  S S
---------------------------------------------|
---------------------------------------------|
--6h-8h-18h-20p-18p-8-6h-8h-18h-20p-18p-8----|
------------------------------------------8h-|
---------------------------------------------|
---------------------------------------------|


   T        T   T        T   T   T
   |--6-|   |--6--|  |---6---|   |--6--| |---
   S  S S   S   S S  S   S   S   S  S  S S
------------------6h-9h-18h-21p-18p-9p-6------|
------6-9h-18h-21------------------------9h-1-|
--20p-----------------------------------------|
----------------------------------------------|
----------------------------------------------|
----------------------------------------------|


   TP    TP    TP    TP    TP    TP
   |-----3-----|     |-----3-----|
   Q     Q     Q     Q     Q     Q
--------------------------------------|
--------------------------------13----|
--------------------12----14----------|
--12----14----15----------------------|
--------------------------------------|
--------------------------------------|


   TP    TP    TP
   |-----3-----|
   Q     Q     Q       H
--------12----13------15b~--------|
--15----------------<>17----------|
----------------------------------|
----------------------------------|
----------------------------------|
----------------------------------|


              H        Q    E  S   S
-------------------------|
-------------------------|
-------------------------|
-------------------9S-10-|
-------------------------|
-------------------------|


   H.            E  E
------------------------|
--10--------------------|
------------------------|
--10----------------9S--|
------------------------|
------------------------|


  H.           E   E
----------------------|
--9-------------------|
----------------------|
--9---------------12--|
----------------------|
----------------------|


   H.            E   E
------------------------|
--11--------------------|
------------------------|
--12----------------10--|
------------------------|
------------------------|


   H.            E   E
------------------------|
--10--------------------|
------------------------|
--10----------------10--|
------------------------|
------------------------|


  S S S S S S S S S S S S S S S S
----------------------------------|
----------------------------------|
--9-7---9-7---9-7-9-7---9-7---9-7-|
----------------------------------|
----------------------------------|
----------------------------------|


  S S S S S S S S S S S S S S S S
----------------------------------|
----------------------------------|
--7-5---7-5---7-5-9-6---9-6---9-6-|
----------------------------------|
----------------------------------|
----------------------------------|


  W                   W
-------------------|---------------------|
--6----------------|--L------------------|
-------------------|---------------------|
--7----------------|--L------------------|
-------------------|---------------------|
-------------------|---------------------|

                                           T
  E    E   E  E   E  E  E  E    E  E   E   E
--7h--10------7--------------------7--10--14--|S
----------------------------------------------|
----------11-----11--7-----7h--11-------------|
------------------------9---------------------|
----------------------------------------------|
----------------------------------------------|


   T    T
   E    E    E   E   E   E  E  E  E   E  E  E
--15S--14p--10p--7----------------------------|
----------------------------------------------|
--------------------11p--7-----7--9--11--9--7-|
----------------------------9-----------------|
----------------------------------------------|
----------------------------------------------|


  Q.      E  Q    H.
--------------------------------|
--------------------------------|
--6~---------7----9~------------|
--------------------------------|
--------------------------------|
--------------------------------|


   H.              H.
---------------------------------|
---------------------------------|
--12br------------11~------------|
---------------------------------|
---------------------------------|
---------------------------------|


  S  S E  E  E  E  E  E  E   E  E  E  E
-----------------------------------------|
--7h-8-7---------------------------------|
----------9--------9--7------------------|
-------------9--7--------9---------------|
----------------------------10--9--7--9--|
-----------------------------------------|


   E  E  E   E   E   E   E   E   E   S   S
------------------------12--14--15--14h-15p-1-|
--------------------12------------------------|
---------9--11--12----------------------------|
------9---------------------------------------|
--10------------------------------------------|
----------------------------------------------|


   H.            Q     Q     Q
----------------10----12----14----|
----------------------------------|
----------------------------------|
----------------------------------|
----------------------------------|
----------------------------------|


  H.            Q       Q     Q
--9~------------9br----(9)----7----|
-----------------------------------|
-----------------------------------|
-----------------------------------|
-----------------------------------|
-----------------------------------|


    H.              H.
-----------------------------------|
--/15S~------------17S~------------|
-----------------------------------|
-----------------------------------|
-----------------------------------|
-----------------------------------|


   H.                H.
-----------------17g17b------------|
--19~------------------------------|
-----------------------------------|
-----------------------------------|
-----------------------------------|
-----------------------------------|


    H.              H.
--/19S~------------21S~------------|
-----------------------------------|
-----------------------------------|
-----------------------------------|
-----------------------------------|
-----------------------------------|


   H.             Q      Q      Q
--22~------------26----(24)----22----|
-------------------------------------|
-------------------------------------|
-------------------------------------|
-------------------------------------|
-------------------------------------|


      H.             E    E   E   Q     E
--24g24b------------24b--26--24--24b-------|
-------------------------------------------|
-------------------------------------------|
-------------------------------------------|
-------------------------------------------|
-------------------------------------------|


      H.             H.
--24g24b------------24~------------|
-----------------------------------|
-----------------------------------|
-----------------------------------|
-----------------------------------|
-----------------------------------|


    E   S  S  S  S  S  S  S  E   S  S  S  S
--/22--19-17----------------19--17------------|
-------------22-19-17--------------22-19-17---|
----------------------19-18-----------------1-|
----------------------------------------------|
----------------------------------------------|
----------------------------------------------|


   S  S  S  S  S  S  S  S  S  S  S  S  S  S
--15-14-12------------------------------------|
-----------15-14-12---------------------------|
--------------------15-14---------------------|
--------------------------16-15-14------------|
-----------------------------------16-14-13-1-|
----------------------------------------------|


   E   E   E   E    E    E   E.   E   Q
------19------17S--19S--17-------19--------19-|
----------------------------------------------|
--16------16----------------16-------16-------|
----------------------------------------------|
----------------------------------------------|
----------------------------------------------|


   S  E   E   E   E   E    E    Q    E   E
---------19------19------/22~---------------2-|
----------------------------------------------|
-------------16------16-----------------------|
----------------------------------------------|
----------------------------------------------|
----------------------------------------------|


    S  S  S  S  S  E.   S. S. S. S. S. S. E.
---/--------------17-------------------------|
------19------------------17-----------------|
---------21-19-18------------19----------19--|
--------------------------------21-19-18-----|
---------------------------------------------|
---------------------------------------------|


   S. S. S. S  S. S. S. S. S.H        E  S
-------------------------------------------|
-------------------------------------------|
-------------------------------------------|
--14----------16-14------------------------|
-----17-16-14-------17-16-14-L--------L--L-|
-------------------------------------------|


   E    E    E   E   E   E   E    E   E    E
-------------------------------------15h--17--|h
----------------------------15h--17-----------|
--------------------14--16--------------------|
----------------14----------------------------|
--12h--16h--17--------------------------------|
----------------------------------------------|


                  T
   E    E    E    E    E    E    E    E    E
--21p--15h--21h--22p--21p--15h--21p--15h--19--|h
----------------------------------------------|
----------------------------------------------|
----------------------------------------------|
----------------------------------------------|
----------------------------------------------|


   T              T              T
   E    E    E    E    E    E    E    E    E
--22p--21p--15h--22p--15h--21h--22p--21p--15--|h
----------------------------------------------|
----------------------------------------------|
----------------------------------------------|
----------------------------------------------|
----------------------------------------------|


   E    E    E    E    E    E    E    E    E
--19p--15h--17h--19p--17p--14h--19p--17p--14-|
---------------------------------------------|
---------------------------------------------|
---------------------------------------------|
---------------------------------------------|
---------------------------------------------|


   W.
---------------------|
---------------------|
--/7S----------------|
---------------------|
--\5S----------------|
---------------------|


  H.             H.
-------------------------------|
-------------------------------|
--9S------------10S------------|
-------------------------------|
--7S-------------8S------------|
-------------------------------|


   W.
---------------------|
---------------------|
--14S----------------|
---------------------|
--12S----------------|
---------------------|


                    PMPM PM  PM  PM PM PM  PM
   H.           E   S S  E   E   E  E  E   E
---------------------------------------------|
---------------------------------------------|
--13-----------------------------------------|
---------------------------------------------|
--11------------7--10-8--7-------------------|
----------------------------12--10--8--7--10-|


   W.
---------------------|
---------------------|
--10S----------------|
---------------------|
---8S----------------|
---------------------|


   H.             H.
-------------------------------|
-------------------------------|
--12S------------14------------|
-------------------------------|
--10S------------12------------|
-------------------------------|


   W.
---------------------|
--14b----------------|
---------------------|
--12-----------------|
---------------------|
---------------------|


  S S E  E  E  E  E  E  E  E  Q    E
--------------------------------------|
--8-6-5-------------------------------|
---------7--5--3--------------3----2--|
------------------7--5--3--2----------|
--------------------------------------|
--------------------------------------|


  S S E  E  E  E  E  E  E  E  Q    E
------------------------------6----5--|
--8-6-5-------------------------------|
---------7--5--3----------------------|
------------------7--5--3--2----------|
--------------------------------------|
--------------------------------------|


   S  S E   E   E  E   E   E  E  E   E  E  E
---------------------------------------------|
---------------------------------------------|
--12-10-9------------------------------------|
-----------12--10--8-------------------------|
----------------------12--10--8--7--10--8--7-|
---------------------------------------------|


  Q    Q    Q    Q    Q    Q
--------------------------------|-----||
--------------------------------|-----||
--------------------------------|-----||
--7-----------------------------|-----||
--5-----------------------------|-----||
--------------------------------|-----||


Duration Legend
---------------
W - whole
H - half
Q - quarter
E - 8th
S - 16th
T - 32nd
X - 64th
. - note dotted
|-n-|  - n-tuplets


Tablature Legend
----------------
L - tied note
x - dead note
g - grace note
(n) - ghost note
> - accentuded note
NH - natural harmonic
AH - artificial harmonic
TH - tapped harmonic
SH - semi harmonic
PH - pitch harmonic
h - hammer on
p - pull off
b - bend
br - bendRelease
pb - preBend
pbr - preBendRelease
brb - bendReleaseBend
\n/ - tremolo bar dip
\n - tremolo bar dive
-/n - tremolo bar Release up
/n\ - tremolo bar inverted dip
/n - tremolo bar return
-\n - tremolo bar Release down
S - shift slide
s - legato slide
/ -  slide into from below or out of upwards
\ -  slide into from above or out of downwards
~ - vibrato
W - wide vibrato
tr - trill
TP - tremolo picking
T - tapping
S - slap
P - pop
< - fade in
^ - brush up
v - brush down
comments
We did not receive enough feedback on this tab! Please rate:
print report bad tab
1 2 3 4 5
I want to post or [tab]
guest
You may want to rate the tab now too:
select rating
Please do not post tabs as comments. Select "correction" instead!