Oops, an error
Loading. Please wait.

No Gravity Tab

7,308 views 12 this week
no commentswrite comment
1 2 3 4 5
accurate
x 1
add to favorites launch autoscroll
font size
0
reset
Autoscroll
+/-
esc
set tempo
stop
Contributor
Difficulty
Tabbers playing skills
intermediate
intermediate ++
WARNING: You are trying to view
                                    content from Ultimate-Guitar.com
                                    in an unauthorized application,
                                    which is prohibited.

                                    Please use an official Ultimate
                                    Guitar Tabs application for iPhone,
                                    iPad or Android to access legitimate
                                    chords, guitar, bass, and drum tabs
                                    from Ultimate-Guitar.com database.

                                    Type "ultimate guitar tabs" in Apple
                                    App Store's or Android Market's
                                    search to find the application.
Standard tuning
song:No Gravity
band:Kiko Loureiro
all credit goes to:Roberto Ribeiro da Silva

this is tab was exported from guitarpro so everybody that doesn't have guitarpro can
it out this song

there maybe a few weird symbols from guitarpro but the legend is down there that 
most of them

             E.  S  S S  E  E  E   Q
E||-------|-----------------------------|
B||-------|--------12---10-----9~-------|
G||-------|------9----x-----------------|
D||-------|-----------------------------|
A||-------|-----------------------------|
E||-------|-----------------------------|


  Q    S S   E    E    E    E    E
-------------------------------------|
-------------------------------------|
-------4---4g6h--(6)s--9h--(9)s--6~--|
-------------------------------------|
-------------------------------------|
-------------------------------------|


  Q    E  E  Q    S S E
---------------------------|
-------------5--------7b~--|
----------6-------6--------|
---------------------------|
---------------------------|
---------------------------|

  E.  S  S S  E     E     Q     E
-------------------------------12~--|
--------12---10h--(10)s--16---------|
------9----x------------------------|
------------------------------------|
------------------------------------|
------------------------------------|


          PM PM
  Q    E  S  S  E.  S S  S E
--L----------------------------|
----------------5-----7b---5~--|
----------4--6------6----------|
-------------------------------|
-------------------------------|
-------------------------------|


  H            E.    T  T  E  E
---------------------------------|
--L--------10g12p---10s-9p-7--7--|
---------------------------------|
---------------------------------|
---------------------------------|
---------------------------------|


         PM
  E  E   S S   E   H
----------------------------|
--L--9--10---7g9~--L--------|
----------------------------|
----------------------------|
----------------------------|
----------------------------|


       PM PM
  E.   T  T  S S  E  E   E   Q
------------19---17--L--16~--L----|
---------17-----------------------|
------18--------------------------|
----------------------------------|
----------------------------------|
----------------------------------|


             PM   PM
  S E.  E    S    S   Q     S  S  E
--L-----------------------------------|
---------------------17----19b---17~--|
-----------(16)-(18)------------------|
--------------------------------------|
--------------------------------------|
--------------------------------------|


  Q    E.   S  S   S  S  S  S   S   E
--------------17p-16-------------------|
--L------------------17----17h-19s-24--|
-----------16-----------16-------------|
---------------------------------------|
---------------------------------------|
---------------------------------------|


      |---3---|
  E   S   S   S  Q     Q      S   E.
--------------------------------------|
--L--22h-24p-22-21~----L----(21)\-----|
--------------------------------------|
--------------------------------------|
--------------------------------------|
--------------------------------------|


       PM PM
  E.   T  T  S S  E     E     E  E   E
------------19---17h--(17)s--23--L--24~--|
---------17------------------------------|
------18---------------------------------|
-----------------------------------------|
-----------------------------------------|
-----------------------------------------|


  E  E   E   E   Q     S  S  E
--------------------------------|
----------------17----19b---17--|
--------16--18------------------|
--------------------------------|
--------------------------------|
--------------------------------|


  Q    E.   T  T  S  S   S  S  S  S  T   T
-----------------16-17p-16-12-----------------|
--------------17--------------12--------------|
-----------18--------------------14-13h-14p-1-|
----------------------------------------------|
----------------------------------------------|
----------------------------------------------|


            |--3--|
   E   S S  S   S S  E    H
-----------------------------------|
-----------------------------------|
--13--11-9-11br-L-9-11b~-----------|
-----------------------------------|
-----------------------------------|
-----------------------------------|


   S  S  S  S  S   T   T  S  S  S   S   S  S
-----------16---------------------------------|
--------17----19h-21p-19-16---------------17~-|
--16-18---------------------16-16h-18h-20-----|
----------------------------------------------|
----------------------------------------------|
----------------------------------------------|


   E.    S   S  S  E    E  E   Q
---------------17--------------------|
--19b---19pb------19br--------19~----|
-------------------------------------|
-------------------------------------|
-------------------------------------|
-------------------------------------|


   S  S  S  S  S   T   T  S  S  S   S   S  S
-----------16---------------------------------|
--------17----19h-21p-19-16---------------17~-|
--16-18---------------------16-16h-18h-20-----|
----------------------------------------------|
----------------------------------------------|
----------------------------------------------|


   E    S  S S  S     E  E   E   Q
--19p--17-16---17----------------------|
------------------19g21-----19--19~----|
---------------------------------------|
---------------------------------------|
---------------------------------------|
---------------------------------------|


   S  S  S  S  S   T   T  S  S  S   S   S  S
-----------16---------------------------------|
--------17----19h-21p-19-16---------------17~-|
--16-18---------------------16-16h-18h-20-----|
----------------------------------------------|
----------------------------------------------|
----------------------------------------------|


   Q      S    S  E    E  E   E.    T  T
--------------17-------------------------|
--19b----19pb----19br--------19~------17-|
-----------------------------------16----|
-----------------------------------------|
-----------------------------------------|
-----------------------------------------|


   Q      S  S  E   Q    S  S  S  S
--17br----L-15-14~--L---------------|
------------------------------16----|
---------------------------16----16-|
------------------------------------|
------------------------------------|
------------------------------------|


   Q.         E   H
---------------------------|
--17------17g19~-----------|
---------------------------|
---------------------------|
---------------------------|
---------------------------|


  Q     S S  E  E  E   Q
----------------------------|
-------12---10--L--9~-------|
----------------------------|
----------------------------|
----------------------------|
----------------------------|


  Q    S S E    E    E    E    E
-----------------------------------|
-----------------------------------|
-------4---6h--(6)s--9h--(9)s--6~--|
-----------------------------------|
-----------------------------------|
-----------------------------------|


  Q    E  E  Q    E  E
--------------------------|
-------------5-------7b~--|
----------6-------6-------|
--------------------------|
--------------------------|
--------------------------|


  E.   S  S  S  E  E   E    E   E
---------19----17--L--23b~---------|
-----------------------------------|
------16----16---------------------|
-----------------------------------|
-----------------------------------|
-----------------------------------|


  E  E  E   S S  E  E   S    S  E
--L---------------------------------|
----------------17-----19pbr---17~--|
-----------18-----------------------|
------------------------------------|
------------------------------------|
------------------------------------|


  E  E  E.   S  S  S  S  S  S   S   E
---------------17-16-------12h-14s-19--|
---------------------17----------------|
------------16----------16-------------|
---------------------------------------|
---------------------------------------|
---------------------------------------|


      |---3---|
  E   S   S   S  S    S E  E   E      E  E
-----17h-19p-17-16br~-----------------------|
------------------------------19--17g19-----|
--------------------------------------------|
--------------------------------------------|
--------------------------------------------|
--------------------------------------------|


   S  S  S  S  S   T   T  S  S  S   S   S  S
-----------16---------------------------------|
--------17----19h-21p-19-16---------------17~-|
--16-18---------------------16-16h-18h-20-----|
----------------------------------------------|
----------------------------------------------|
----------------------------------------------|


   E.    S   S  S  E     E  E   Q
---------------17--------------------|
--19b---19pb------19br~--------------|
-------------------------------------|
-------------------------------------|
-------------------------------------|
-------------------------------------|


   S  S  S  S  S   T   T  S  S  S   S   S  S
-----------16---------------------------------|
--------17----19h-21p-19-16---------------17~-|
--16-18---------------------16-16h-18h-20-----|
----------------------------------------------|
----------------------------------------------|
----------------------------------------------|


   S  S   S  S  S   S  E  E    T S.  Q
--19--------17--------16-------------------|
-------------------------------------------|
-----16s-14----14s-13-13-----/18----11~----|
-------------------------------------------|
-------------------------------------------|
-------------------------------------------|


   S  S  S  S  S   T   T  S  S  S   S   S  S
-----------16---------------------------------|
--------17----19h-21p-19-16---------------17~-|
--16-18---------------------16-16h-18h-20-----|
----------------------------------------------|
----------------------------------------------|
----------------------------------------------|


                                 |---3---|
   S   S   S   S  S   S  E   E   S   S   S  Q
--14s-16s-14p-12-14p-12-----------------------|
------------------------16p-----15p-14p-12-12-|
----------------------------------------------|
----------------------------------------------|
----------------------------------------------|
----------------------------------------------|


          |--3-|
   Q      S S  S  E   Q     S   S  S  S
--17br----L-L-15-17~-------14p-11----11-|
----------------------------------12----|
----------------------------------------|
----------------------------------------|
----------------------------------------|
----------------------------------------|


   Q.      E    Q.     S  S
--12------12b~--------------|
-------------------------12-|
----------------------------|
----------------------------|
----------------------------|
----------------------------|


   S   S  S  S  S  S  S   S  S  S  S  S  S
--15p-14-------------12p-11-------------------|
---------15-12--------------12----12----12h-1-|
---------------14-12-----------11----11-------|
----------------------------------------------|
----------------------------------------------|
----------------------------------------------|


   E.   S E   E  H
--12----------------------|
-------12-----------------|
-------------13-----------|
--------------------------|
--------------------------|
--------------------------|


  Q    S S  E   E   E  E  S S
------------------------------|
------------------------------|
------------------------------|
-------7-7--7h--7s--5---------|
--------------------------x-x-|
------------------------------|


                \1/
    E   S  S E  E   H
-----------------------------|
-----------------------------|
-----------------------------|
--2g4s--5s-4-2---------------|
-----------------------------|
-----------------------------|


  E.  S S S   E   E   E   Q
-------------------------------|
-------------------------------|
-------------------------------|
------x-7---5g7h--7s--9s--4----|
-------------------------------|
-------------------------------|


    H.            E.  T  T
---------------------------|
------------------------10-|
----------------------9----|
--4g6~---------------------|
---------------------------|
---------------------------|


   E.    T  T  E   S   S  Q    E.  T T
--12p---10p-8p-7h--8h-10~--------------|
---------------------------------------|
-------------------------------------9-|
-----------------------------------9---|
---------------------------------------|
---------------------------------------|


   E    S  S  E   S   S  H
----------------------------------|
--12p--10p-9h-L--10h-12~----------|
----------------------------------|
----------------------------------|
----------------------------------|
----------------------------------|


  S S S  S  S   S  S   S  S   S  S   S  S   S
----------------------------------------------|
-----------10s-12-12s-13-13s-15-15s-17-17s-15-|
------9-12------------------------------------|
----9-----------------------------------------|
----------------------------------------------|
----------------------------------------------|


   W
---------------------|
--21~----------------|
---------------------|
---------------------|
---------------------|
---------------------|


   PM     PM PM     PM PM     PM PM     PM
   S S S  S  S S S  S  S S S  S  S S S  S
--12-----12-12-----12-12-----12-12-----12-|
------------------------------------------|
------------------------------------------|
------------------------------------------|
------------------------------------------|
------------------------------------------|


   PM     PM PM   PM PM PM     PM PM   PM PM
   S S S  S  S S  S  S  S S S  S  S S  S  S
--12-----12-12---12-12-12-----12-12---12-12-|
--------------------------------------------|
--------------------------------------------|
--------------------------------------------|
--------------------------------------------|
--------------------------------------------|


     PM PM   PM   PM PM PM     PM   PM PM
  S  S  S S  S S  S  S  S S S  S S  S  S S
----12-12---12---12-12-12-----12---12-12---|
-------------------------------------------|
-------------------------------------------|
-------------------------------------------|
-------------------------------------------|
-------------------------------------------|


   PM   PM   PM   PM PM PM   PM
                                   |---3--|
   S S  S S  S S  S  S  S S  S  S  S   S  S
--12---12---12---12-12-12---12-12-14br-L-12-1-|
----------------------------------------------|
----------------------------------------------|
----------------------------------------------|
----------------------------------------------|
----------------------------------------------|


   E   E    Q    E.   S   E.  T  T
--12--14pb-----------15br-L---L-12-|
----------------------0-------L----|
-----------------------------------|
-----------------------------------|
-----------------------------------|
-----------------------------------|


   S  S S  S  E   E    E.   S   E.  T  T
--15-12---12~-L--14pb------17br-L---L-15-|
----------------------------0-------L----|
----------------------------0-------L----|
-----------------------------------------|
-----------------------------------------|
-----------------------------------------|


                           |---3--|
   S  S  S  S  E   E   E   S   S  S  S  S  S
--17-15-12-12~-L--14b--L--14p-12----12-14----|
---------------------------------14-------15-|
---------------------------------------------|
---------------------------------------------|
---------------------------------------------|
---------------------------------------------|


    S  S  S  S  S   S  E   E   S  S S S S S
----------------------------------------7-8-|
--------------------------------------8-----|
--\14-12----14-12br-L-14~-----------9-------|
---------14-------------------12\-7---------|
--------------------------------------------|
--------------------------------------------|


   E    S  S  S  S E   Q    E.   S
------------------------------------|
--12s--10-10s---12-8~-----------10h-|
------------------------------------|
------------------------------------|
------------------------------------|
------------------------------------|


                                        T
          |--3-|             |--3--|
  E  T T  T  T T  T T  T  T  T  T  T T  T T
---------------------------------------------|
-------8p-7p-5-------------------------------|
---------------8p-7-5p-4h-5h-7p-5p-4---------|
-------------------------------------5h-9----|
------------------------------------------2h-|
---------------------------------------------|


   S  S S  S S  S S  S S  S S  S     E   S S
---------------------------------------------|
----------13-L-12----------------12g13--12---|
-----12------------------11---11-------------|
--14----------------13-----------------------|
---------------------------------------------|
---------------------------------------------|


  S  S  S  S S  S S  S S  S S  S  E  S  S
------------------------------------------|
----------13---12----------------12-------|
-------12-----------14---14---15-------12-|
----14------------------------------------|
------------------------------------------|
------------------------------------------|


   S S  S S  S S  S  S  S   T   T  S  S  S
--12-----------------------------------------|
-------16---15---12----12h-13p-12----12------|
--------------------14------------14----11br-|
---------------------------------------------|
---------------------------------------------|
---------------------------------------------|


  S S S S    S S E  S S S S  S S S S
-------------------------------------|
-------------------------------------|
--9---7-9-\9g2-----------------------|
----9----------5-2--L---2-5b-2-----2-|
----------------------5--------2-5---|
-------------------------------------|


                    |-6-| |-6-| |--6-|  |--6-
  Q     E.  T X  X  S S S S S S S  S S  S  S
-------------------------------------7-10-12-|
--------------------------------8-10---------|
--------------------------5-7-9--------------|
----------------------5-7--------------------|
--3~----L---3-5s-6s-7------------------------|
---------------------------------------------|


   -/0
   Q    S  S  E   Q    E.   T  T
--10----L-12p-7~-----------------|
------------------------------12-|
---------------------------11----|
---------------------------------|
---------------------------------|
---------------------------------|


                 T          T           T
   6     |-6-|   |---3---|
   E.    E   S   S   S   S  T   T   T   T  T
--14p---10--14h-15p-14p-10-14p-10h-12h-14-12--|p
----------------------------------------------|
----------------------------------------------|
----------------------------------------------|
----------------------------------------------|
----------------------------------------------|


               T        T              T
        |---3--|  |--6--|  |--6-|  |---12-|
   T  T T  T   T  T  T  T  T  T T  T   T  T
--10p-9-5h-7h-10p-7p-5-----------------------|
-----------------------10p-7p-5--------------|
--------------------------------6h-7h-11p-7p-|
---------------------------------------------|
---------------------------------------------|
---------------------------------------------|


  |-6-| |-6-| |-6-| |-6-| |-6-| |-6-| |-6-| |
  S S S S S S S S S S S S S S S S S S S S S S
----------------------------------------------|
----------------------------------------------|
----------------------------------------------|
--------4-----------4-5-4-----------4-5-7-5-4-|
--3-5-7---7-5-3-5-7-------7-5-3-5-7-----------|
----------------------------------------------|


  |-6-| |-6-| |-6-| |-6-| |-3-|
  S S S S S S S S S S S S S S S T T T T T T T
----------------------------------------------|
----------------------------------------------|
----------------------------------------------|
--------5-4---------5-----------5-7-5---------|
--3-5-7-----7-5-7-9---9-7-5-7-9-------9-7-5-7-|
----------------------------------------------|


  T T  T T  T T T T  T T  T T T T  T T  T  T
---------------------------------------------|
---------------------------------------------|
--9-7---------7-9-7---------7-9-7----8-13-11-|
------11-9-11-------11-9-11-------11---------|
---------------------------------------------|
---------------------------------------------|


   T  T  T  T  T  T  T  T  T  T  T  T  T  T
----------------------------------------------|
--12-11----------11-12-11----------11-12-11---|
--------13-11-13----------13-11-13----------1-|
----------------------------------------------|
----------------------------------------------|
----------------------------------------------|


   S   S  S  S  S   T   T  S  S  S   S   S  S
------------16--------------------------------|
---------17----19h-21p-19-16---------------17-|
--16--18---------------------16-16h-18h-20----|
----------------------------------------------|
--14~-----------------------------------------|
----------------------------------------------|


   E.    S   S  S  E     E  E   E.   S
---------------17-----------------------|
--19b---19pb------19br~--------19~------|
-------------------------------------4s-|
----------------------------------------|
----------------------------------------|
----------------------------------------|


   S  S  S  S  S   T   T  S  S  S   S   S  S
-----------16---------------------------------|
--------17----19h-21p-19-16---------------17~-|
--16-18---------------------16-16h-18h-20-----|
----------------------------------------------|
----------------------------------------------|
----------------------------------------------|


   S  S   S  S  S   S  E  E    T S.     Q
--19--------17--------16---------------------|
---------------------------------------------|
-----16s-14----14s-13-13-----/18----13g11~---|
---------------------------------------------|
---------------------------------------------|
---------------------------------------------|


   S  S  S  S  S   T   T  S  S  S   S   S  S
-----------16---------------------------------|
--------17----19h-21p-19-16---------------17~-|
--16-18---------------------16-16h-18h-20-----|
----------------------------------------------|
----------------------------------------------|
----------------------------------------------|


   E    S  S  S  S  E    E.  S  Q
----------17-19-17-19br--------23~----|
--19b--21-----------------------------|
--------------------------------------|
--------------------------------------|
--------------------------------------|
--------------------------------------|


                                           |-
   Q     S   S  E   E.   T  T  T  T  T  T  T
--24----23br---23~------23-21-19-------------|
---------------------------------22-21-19----|
------------------------------------------21-|
---------------------------------------------|
---------------------------------------------|
---------------------------------------------|


                     |----3---|
   Q.      E    Q    E  E  S  S
--------------------------------|
--------------------------------|
--21------21b~-------L--L--L-19-|
--------------------------------|
--------------------------------|
--------------------------------|


   |--6--|  |--6--|  |--6--|  |--6--|  |--6-|
   S  S  S  S  S  S  S  S  S  S  S  S  S  S S
--19-15----15-10----10-15-10-14-11------------|
--------15-------12----------------12-10------|
-----------------------------------------11-8-|
----------------------------------------------|
----------------------------------------------|
----------------------------------------------|


  Q.     E    Q    Q
------------------------|
------------------------|
------------------------|
------------------------|
--7------7br------------|
------------------------|


   T  T  T  T  T  T  T  T  T  T  T  T  T  T
----------------------------------------------|
----------------------------------------------|
----------------------------------------------|
-----------11-------11-12----11-12-14-11-12-1-|
--10-12-14----12-14-------14------------------|
----------------------------------------------|


   Q.          E   Q    Q
-----------------------------|
-----------------------------|
--13~------13g15~------------|
-----------------------------|
-----------------------------|
-----------------------------|


Duration Legend
---------------
W - whole
H - half
Q - quarter
E - 8th
S - 16th
T - 32nd
X - 64th
. - note dotted
|-n-|  - n-tuplets


Tablature Legend
----------------
L - tied note
x - dead note
g - grace note
(n) - ghost note
> - accentuded note
NH - natural harmonic
AH - artificial harmonic
TH - tapped harmonic
SH - semi harmonic
PH - pitch harmonic
h - hammer on
p - pull off
b - bend
br - bendRelease
pb - preBend
pbr - preBendRelease
brb - bendReleaseBend
\n/ - tremolo bar dip
\n - tremolo bar dive
-/n - tremolo bar Release up
/n\ - tremolo bar inverted dip
/n - tremolo bar return
-\n - tremolo bar Release down
S - shift slide
s - legato slide
/ -  slide into from below or out of upwards
\ -  slide into from above or out of downwards
~ - vibrato
W - wide vibrato
tr - trill
TP - tremolo picking
T - tapping
S - slap
P - pop
< - fade in
^ - brush up
v - brush down
comments
We did not receive enough feedback on this tab! Please rate:
print report bad tab
1 2 3 4 5
I want to post or [tab]
guest
You may want to rate the tab now too:
select rating
Please do not post tabs as comments. Select "correction" instead!