Oops, an error
Loading. Please wait.

Pau De Arara Tab

1,701 views 1 this week
no commentswrite comment
1 2 3 4 5
please rate
add to favorites launch autoscroll
font size
0
reset
Autoscroll
+/-
esc
set tempo
stop
Contributor
Difficulty
advanced
WARNING: You are trying to view
                                    content from Ultimate-Guitar.com
                                    in an unauthorized application,
                                    which is prohibited.

                                    Please use an official Ultimate
                                    Guitar Tabs application for iPhone,
                                    iPad or Android to access legitimate
                                    chords, guitar, bass, and drum tabs
                                    from Ultimate-Guitar.com database.

                                    Type "ultimate guitar tabs" in Apple
                                    App Store's or Android Market's
                                    search to find the application.
                                 Pau-de-Arara                                   


                                                              
Kiko Loureiro

12 String Guitar, Open D5 Tuning 

T = 80

     Q    E  E  E  E  S E  S    Q    E  E  E  E  S E  S  
D||--0-------7--6--4--L-6--7-|--6-------7--6--4--L-2--2-|
A||--0-------9--7--5--L-7--9-|--7-------9--7--5--L-3--3-|
D||--0-------0--0--0--L-4--0-|--0-------0--0--0--L-0--0-|
D||--0-------0--0--0--L-5--0-|--0-------0--0--0--L-0--0-|
A||--0-------0--0--0--L-5--0-|--0-------0--0--0--L-0--0-|
D||--0-------0--0--0--L-0--0-|--0-------0--0--0--L-0--0-|


  Q    E  E  E  E  S E  S    Q    E   E   E   E  S E  S  
--2-------7--6--4--L-6--7-|--6-------10--10--10--L-9--7-|
--3-------9--7--5--L-7--9-|--7--------9---9---9--L-7--5-|
--0-------0--0--0--L-4--0-|--0--------0---0---0--L-0--0-|
--0-------0--0--0--L-5--0-|--0--------0---0---0--L-0--0-|
--0-------0--0--0--L-5--0-|--0--------0---0---0--L-0--0-|
--0-------0--0--0--L-0--0-|--0--------0---0---0--L-0--0-|


  Q    E  S S S S S S S E.     E  S S S E  S S S S S S S S S  
--7---------------2---------|--------------------0---0-------|
--5-------------3---3---3---|--L----3----------2---2---2-----|
--0-------------------0-----|--0------0------0-----------0---|
--0-------------------------|-----0------------------------0-|
--0-------0-2-3-------------|-----------0--2-----------------|
--0-------------------------|--------------------------------|


                                                       NH   NH   NH            
  S S S S E  S S S S S S S S E     E  E  S S   S S S   E    S    Q             
----------0--0------------------|--------------------<>0--<>7-<>12----|
--2-2-2-------------------------|--------------------<>0--<>7-<>12----|
--------0----0---------------0--|--L-----------------<>0--<>7-<>12----|
---------------0-2-4-2-0-2-0-0--|--L--0--2-4---2-0---<>0--<>7-<>12----|
----2-2----------------------0--|--L-----------------<>0--<>7-<>12----|
---------------0-2-4-2-0-2-0-0--|--L--0--2-4-0g2-0---<>0--<>7-<>12----|


Standard Tuning, Electric Guitar 

T = 120

  E   E  E  E  S E   S Q       E   E  E  E  S E   S Q     
----------------------------|----------------------------|
-----10--9--7--L-9--10-9----|-----10--9--7--L-9--10-9----|
----------------------------|----------------------------|
----------------------------|----------------------------|
----------------------------|----------------------------|
----------------------------|----------------------------|


  E   E  E  E  S E   S Q       E   E   E   E  S  E   E   E  S  
----------------------------|---------------------------------|
-----10--9--7--L-9--10-9----|-----13--13--13--L-12--10--10----|
----------------------------|---------------------------------|
----------------------------|---------------------------------|
----------------------------|---------------------------------|
----------------------------|---------------------------------|


  E  E  E  E  S E  S Q       E  E  E  E  S E  S Q     
--------------------------|--------------------------|
-----8--7--5--L-7--8-7----|-----7--5--5--L-----------|
--------------------------|--4-------------7--7-7----|
--------------------------|--------------------------|
--------------------------|--------------------------|
--------------------------|--------------------------|


  E   E  E  E  S E   S Q       S S S S S S E  H         
----------------------------|--------------------------|
-----10--9--7--L-9--10-9----|------5---5---7--L--------|
----------------------------|----5---------7--L--------|
----------------------------|--5-----5---5-7--L--------|
----------------------------|--------------------------|
----------------------------|--------------------------|


  E   E   E   E  S  E   S  Q       E   E   E   E  S  E   S  Q     
--------------------------------|--------------------------------|
-----13--12--10--L-12--13-12----|-----13--12--10--L-12--13-12----|
--------------------------------|--------------------------------|
--------------------------------|--------------------------------|
--------------------------------|--------------------------------|
--------------------------------|--------------------------------|


  E   E   E   E  S  E   S  Q       E   E   E   E  S  E   S  E  E   
--------------------------------|---------------------------------|
-----13--12--10--L-12--13-12----|-----17--17--17--L-15--15-15-----|
--------------------------------|---------------------------------|
--------------------------------|---------------------------------|
--------------------------------|---------------------------------|
--------------------------------|---------------------------------|


  E   E   E   E  S  E   S  Q       E   E   E   E  S  E   S  Q     
--------------------------------|--------------------------------|
-----20--19--17--L-19--20-19----|-----19--17--17--L-15--15-15----|
--------------------------------|--------------------------------|
--------------------------------|--------------------------------|
--------------------------------|--------------------------------|
--------------------------------|--------------------------------|


  E   E   E   E  S  E   S  Q        S  S  S  S  S  S  E  H         
--------------------------------|---------------------------------|
-----22--21--19--L-21--22-21----|---------------------------------|
--------------------------------|--------17----17----19--L--------|
--------------------------------|-----17--------------------------|
--------------------------------|--17-------17----17--------------|
--------------------------------|---------------------------------|


  S S S  S S S S S S S S S S S S S  
-----------------8-------7---------|
--------10-------------------------|
--7-7-7----7-7-7---7-7-7---7-7-7-7-|
-----------------------------------|
-----------------------------------|
-----------------------------------|


   S  T   T  S  S  S S  S  S S  S S S  S S S S  
--10-12p-10p-8-------8-------------------------|
---------------12-10---12-10-9------9----------|
-------------------------------11-9---11-7-9-7-|
-----------------------------------------------|
-----------------------------------------------|
-----------------------------------------------|


   S  S  S  S  S  S  S  S  S  S  S  S  S  S  S  S  
-----------------------12----------10-------------|
-----------13-------------------------------------|
--11-11-11----11-11-11----11-11-11----11-11-11-11-|
--------------------------------------------------|
--------------------------------------------------|
--------------------------------------------------|


   S  T   T   S  S  S  S  S  S  S  S  S  S  S  S  S  S  
--14-15p-14p-12-------12-------------------------------|
----------------15-13----15-12-13-------12-------------|
----------------------------------14-13----14-11-13-11-|
-------------------------------------------------------|
-------------------------------------------------------|
-------------------------------------------------------|


   S  S  S  S  S  S  S  S  S  S  S  S  S  S  S  S  
--------------14-15-14----------------------14-15-|
--------------------------------------------------|
--------14-16----------16-14----------14-16-------|
--14-17----------------------17-14-17-------------|
--------------------------------------------------|
--------------------------------------------------|


   S  S  S  S  S  S  S  S  S  S  S  S  S  S  S  S  
--------------14-17-14----------------------14-17-|
--------------------------------------------------|
--------12-14----------14-12----------12-14-------|
--12-16----------------------16-12-16-------------|
--------------------------------------------------|
--------------------------------------------------|


  S S S  S S S S S S S S S S S S S  
-----------------8-------7---------|
--------10-------------------------|
--7-7-7----7-7-7---7-7-7---7-7-7-7-|
-----------------------------------|
-----------------------------------|
-----------------------------------|


   S  T   T  S  S  S S  S  S S  S S S  S S S S  
--10-12p-10p-8-------8-------------------------|
---------------12-10---12-10-9------9----------|
-------------------------------11-9---11-7-9-7-|
-----------------------------------------------|
-----------------------------------------------|
-----------------------------------------------|


   S  S  S  S  S  S  S  S  S  S  S  S  S  S  S  S  
-----------------------12----------10-------------|
-----------13-------------------------------------|
--11-11-11----11-11-11----11-11-11----11-11-11-11-|
--------------------------------------------------|
--------------------------------------------------|
--------------------------------------------------|


   S  T   T   S  S  S  S  S  S  S  S  S  S  S  S  S  S  
--14-15p-14p-12-------12-------------------------------|
----------------15-13----15-12-13-------12-------------|
----------------------------------14-13----14-11-13-11-|
-------------------------------------------------------|
-------------------------------------------------------|
-------------------------------------------------------|


   S  S  S  S  S  S  S  S  S  S  S  S  S  S  S  S  
--------------14-15-14----------------------14-15-|
--------------------------------------------------|
--------14-17----------16-14----------14-16-------|
--14-17----------------------16-14-17-------------|
--------------------------------------------------|
--------------------------------------------------|


   S  S  S  S  S  S  S  S  S  S  S  S  S  S  S  S  
--------------14-17-14----------------------14-17-|
--------------------------------------------------|
--------12-14----------14-12----------12-14-------|
--12-16----------------------16-12-16-------------|
--------------------------------------------------|
--------------------------------------------------|


      Q.         E    H               Q.         E    H         
-------------------------------|-------------------------------|
--15g15br------(15)--14--------|--20g20br------(20)--19--------|
-------------------------------|-------------------------------|
-------------------------------|-------------------------------|
-------------------------------|-------------------------------|
-------------------------------|-------------------------------|


   S  S  S  S  S  S  S  S  S  S  S  S  S  S  S  S  
--------------14-15-14----------------------14-15-|
--------------------------------------------------|
--------14-17----------16-14----------14-16-------|
--14-17----------------------16-14-17-------------|
--------------------------------------------------|
--------------------------------------------------|


   S  S  S  S  S  S  S  S  S  S  S  S  S  S  S  S  
--------------14-17-14----------------------14-17-|
--------------------------------------------------|
--------12-14----------14-12----------12-14-------|
--12-16----------------------16-12-16-------------|
--------------------------------------------------|
--------------------------------------------------|


      Q.         E    H            W                 
-------------------------------|--------------------|
--15g15br------(15)--14--------|--19----------------|
-------------------------------|--------------------|
-------------------------------|--------------------|
-------------------------------|--------------------|
-------------------------------|--------------------|


  S S S S S S S S S S S S S S S S  
----------------------------------|
----------------------------------|
----------------------------------|
--0-0-0-0-0-0-0-0-0-0-0-0-0-0-0-0-|
----------------------------------|
----------------------------------|


   S   S  S  S  S  S  S  S   S  S   S  S  S   S  S  S  
------------------------------------------------------|
------------------------------------------------------|
------------------------------------------------------|
--12p-10-12p-0h-7-12p-7p-0h-10p-0h-10p-0h-7h-10p-7p-0-|
------------------------------------------------------|
------------------------------------------------------|


  S S S S S S S S S S S S S S S S  
----------------------------------|
----------------------------------|
----------------------------------|
--0-0-0-0-0-0-0-0-0-0-0-0-0-0-0-0-|
----------------------------------|
----------------------------------|


   S   S  S  S  S  S  S  S   S  S   S  S  S   S  S  S  
------------------------------------------------------|
------------------------------------------------------|
------------------------------------------------------|
--12p-10-12p-0h-7-12p-7p-0h-10p-0h-10p-0h-7h-10p-7p-0-|
------------------------------------------------------|
------------------------------------------------------|


            |-----3----|                               
   H        Q    Q     Q           H         H         
----------------------------|-------------------------|
----------------------------|-------------------------|
--11--------L----9-----7----|--10g11b--------7--------|
----------------------------|-------------------------|
----------------------------|-------------------------|
----------------------------|-------------------------|


                 |----3----|                       |----3----|     
   Q     E    E  Q    Q    Q         Q      E   E  Q    Q    Q     
--------------------------------|---------------------------------|
--------------------------------|---------------------------------|
--11S----9S--11--L----9----7----|--9g9b----(9)--7--L--------------|
--------------------------------|-----------------------8----7----|
--------------------------------|---------------------------------|
--------------------------------|---------------------------------|


           |-----3----|                                      
  H        Q     Q    Q        H         Q    S  S   S   S   
---------------------------|--------------------------------|
---------------------------|------------10------------------|
--7--------L----11----9----|--12----------------12h-14p-12h-|
---------------------------|--------------------------------|
---------------------------|--------------------------------|
---------------------------|--------------------------------|


   Q     E   E  H            Q        H.             
-------------------------|--------------------------|
-------------------------|--------------------------|
--11----16--16--L--------|--14----17g17b------------|
-------------------------|--------------------------|
-------------------------|--------------------------|
-------------------------|--------------------------|


            |----3----|                               
   H        Q    Q    Q           H         H         
---------------------------|-------------------------|
---------------------------|-------------------------|
--11--------L----9----7----|--11g11b--------7--------|
---------------------------|-------------------------|
---------------------------|-------------------------|
---------------------------|-------------------------|


                 |----3----|                        |----3----|     
   Q     E    E  Q    Q    Q         Q      E    E  Q    Q    Q     
--------------------------------|----------------------------------|
--------------------------------|----------------------------------|
--11----11S--11--L----9----7----|--9g9b----(9)p--7--L--------------|
--------------------------------|------------------------8----7----|
--------------------------------|----------------------------------|
--------------------------------|----------------------------------|


  Q    E.  E.  E.   S.S.     Q     H        Q         Q     E   E  H         
-------------------------|-----------------------|--------------------------|
-------------------------|-----------------------|--------------------------|
-----------7---L---11-9--|--12----14-------------|--\11----16--16--L--------|
--5----4-----------------|-----------------------|--------------------------|
-------------------------|-----------------------|--------------------------|
-------------------------|-----------------------|--------------------------|


   Q        H.             
--------------------------|
--------------------------|
--14----17g17b------------|
--------------------------|
--------------------------|
--------------------------|


   S  S  S  S  S   S   S  S  S  S  S  S  S   S   S  S  
------------------------------------------------------|
--------15----14h-15p-14----------15----14h-15p-14----|
------------------------------------------------------|
-----16----16------------16----16----16------------16-|
--14------------------------14------------------------|
------------------------------------------------------|


      Q.          E   H         
-------------------------------|
--17g17b------17g17b--L--------|
-------------------------------|
-------------------------------|
-------------------------------|
-------------------------------|


   S  S  S  S  S   S   S  S  S  S  S  S  S   S   S  S  
------------------------------------------------------|
--------15----14h-15p-14----------15----14h-15p-14----|
------------------------------------------------------|
-----16----16------------16----16----16------------16-|
--14------------------------14------------------------|
------------------------------------------------------|


                      |-----3-----|                     |-----3-----|     
      Q.          E   Q     Q     Q           H         Q     Q     Q     
---------------------------------------|---------------------------------|
--17g17b------17g17b--L----19----20----|--20g20b--------L----20----19----|
---------------------------------------|---------------------------------|
---------------------------------------|---------------------------------|
---------------------------------------|---------------------------------|
---------------------------------------|---------------------------------|


             |-----3-----|                 |------3-----|     
   H         Q     Q     Q        H        Q     Q      Q     
------------------------------|------------------------------|
--17---------L----15----14----|--19--------L----15S----14----|
------------------------------|------------------------------|
------------------------------|------------------------------|
------------------------------|------------------------------|
------------------------------|------------------------------|


                                          |----3----|     
      H            H            H         Q    Q    Q     
-----------------------------|---------------------------|
--11g11br--------(11)--------|---------------------------|
-----------------------------|--9b--------L----9----7----|
-----------------------------|---------------------------|
-----------------------------|---------------------------|
-----------------------------|---------------------------|


                                   |-----3-----|     
   H         H            H        Q     Q     Q     
----------------------|-----------------------------|
----------------------|-----------------------------|
--11b--------7--------|--11--------LS----9S----7----|
----------------------|-----------------------------|
----------------------|-----------------------------|
----------------------|-----------------------------|


                   |----3----|                               |--3--|  
    Q      E    E  Q    Q    Q       H         S   S E   E   S  S  S  
----------------------------------|----------------------------------|
----------------------------------|----------------------------10----|
--9g9b----(9)p--7--L--------------|--7---------------9------11----11-|
------------------------8----7----|-----------10S-12----12-----------|
----------------------------------|----------------------------------|
----------------------------------|----------------------------------|


        |--3--|       |--3--|             
   E    S  S  S  E    S  S  S  H          
-------10------------10------------------|
--13b-----13-10-13b-----13-10-14b--------|
-----------------------------------------|
-----------------------------------------|
-----------------------------------------|
-----------------------------------------|


   |---3---|   |---6--|   |---6--|                
   E   E   E   S  S   S   S   S  S  S  E.   Q     
--14--13--12--10-12h-13p-12p-10------------------|
--------------------------------13----13b---L----|
-----------------------------------14------------|
-------------------------------------------------|
-------------------------------------------------|
-------------------------------------------------|


   T  T  T  T  T  T  T  T  S   E.   H         
-----------10-12-13-12-10-13S-20b---L--------|
--10-12-13-----------------------------------|
---------------------------------------------|
---------------------------------------------|
---------------------------------------------|
---------------------------------------------|


  S  S  S S  S   S  S  S  S  S  S   S  S  S  S  S  
--------------------------------------------------|
-------12---12S-15-------15----15S-17-------17-17-|
----11----------------14-----------------16-------|
--9-------9--------12-------12--------14----------|
--------------------------------------------------|
--------------------------------------------------|


          |---3---|              
   S  E.  E   E   E   Q    Q     
--------------------------------|
--17b-L------15--17b--L----L----|
--------------------------------|
--------------------------------|
--------------------------------|
--------------------------------|


  S  S  S S  S   S  S  S  S  S  S   S  S  S  S  S   
---------------------------------------------------|
-------12---12S-15-------15----15S-17-------17-17b-|
----11----------------14-----------------16--------|
--9-------9--------12-------12--------14-----------|
---------------------------------------------------|
---------------------------------------------------|


        |---3---|   |-----3-----|                  |-----3-----|     
  S E.  E   E   E   Q     Q     Q        H         Q     Q     Q     
-------------------------------------|------------------------------|
--L-L------15--17b--L-----L----20----|--20b--------L----20----19----|
-------------------------------------|------------------------------|
-------------------------------------|------------------------------|
-------------------------------------|------------------------------|
-------------------------------------|------------------------------|


   E      E   Q     Q     Q        H         H         
-------------------------------|------------18--------|
--17br--(17)--L----15----14----|--19------------------|
-------------------------------|----------------------|
-------------------------------|----------------------|
-------------------------------|----------------------|
-------------------------------|----------------------|


   H            H            S  S  S S S  S  S S S  S  S S S  S  E   
--19br--------(19)--------|-----------------------------------------|
--------------------------|----12-10-9-9-12-10-9-9-12-10-9-9-12-10--|
--------------------------|-----------------------------------------|
--------------------------|-----------------------------------------|
--------------------------|-----------------------------------------|
--------------------------|-----------------------------------------|


  S E  S S S S S S E  S E  S S    S  S  S S S  S  S S S  S  S S S  S  E   
-------------------------------|-----------------------------------------|
--L-9--9-9------------7-7--9---|----12-10-9-9-12-10-9-9-12-10-9-9-12-10--|
-----------9-9-9-9-9-----------|-----------------------------------------|
-------------------------------|-----------------------------------------|
-------------------------------|-----------------------------------------|
-------------------------------|-----------------------------------------|


  S E  S S S S S E  S  S  E  S S    S  S  S S S  S  S S S  S  S S S  S  E   
---------------------------------|-----------------------------------------|
--L-9--9-9-----------------------|-----------------------------------------|
-----------9-9-9-9--9-11b-9------|----13-11-9-9-13-11-9-9-13-11-9-9-13-11--|
---------------------------------|-----------------------------------------|
---------------------------------|-----------------------------------------|
---------------------------------|-----------------------------------------|


  S E  S S E  S S E  S  E  E     E  S S S S S S S S S S  Q      
------------------------------|-----------6-7-9-7-6-----11b----|
------------------------------|---------7-----------9-7--------|
--L-9--9-9-8--8-8-8--8-11--9--|-------6------------------------|
------------------------------|-----8--------------------------|
------------------------------|--------------------------------|
------------------------------|--------------------------------|


  Q.      E  H           S  S  S S S  S  S S S  S  S S S  S  E   
--L------11--L--------|-----------------------------------------|
----------------------|----12-10-9-9-12-10-9-9-12-10-9-9-12-10--|
----------------------|-----------------------------------------|
----------------------|-----------------------------------------|
----------------------|-----------------------------------------|
----------------------|-----------------------------------------|


  S E  S S S S S S E   S  E   S S    S  S  S S S  S  S S S  S  S S S  S  E   
----------------------------------|-----------------------------------------|
--L-9--9-9------------------------|----12-10-9-9-12-10-9-9-12-10-9-9-12-10--|
-----------9-9-9-9-9--11-11--13---|-----------------------------------------|
----------------------------------|-----------------------------------------|
----------------------------------|-----------------------------------------|
----------------------------------|-----------------------------------------|


  S E  S S E  S E  S  S    E   E     S  S  S S S  S  S S S  S  S S S  S  E   
----------------------------------|-----------------------------------------|
--L-9--9-9------------------------|-----------------------------------------|
-----------9--9-9--9-11b-(11)--9--|----13-11-9-9-13-11-9-9-13-11-9-9-13-11--|
----------------------------------|-----------------------------------------|
----------------------------------|-----------------------------------------|
----------------------------------|-----------------------------------------|


  S E  S S E  S S E  S  E  E     E  S S S S S S S S S S  Q      
------------------------------|-----------6-7-9-7-6-----11b----|
------------------------------|---------7-----------9-7--------|
--L-9--9-9-8--8-8-8--8-11--9--|-------6------------------------|
------------------------------|-----8--------------------------|
------------------------------|--------------------------------|
------------------------------|--------------------------------|


  Q.      E  H            W                 
--L------11--L--------|--------------------|
----------------------|--14----------------|
----------------------|--------------------|
----------------------|--------------------|
----------------------|--------------------|
----------------------|--------------------|


   |--6--|  |--6-|  |--6--|  |-6-|  |-6-| |-6-| |-6-| |-6-|  
   S  S  S  S  S S  S  S  S  S S S  S S S S S S S S S S S S  
------------------------------------------------------------|
--14-12-10---------14-12-10--------10-9-7-------------------|
-----------13-11-9----------11-9-7--------9-7-6-------------|
------------------------------------------------7-6-4-------|
------------------------------------------------------7-5-4-|
------------------------------------------------------------|


    >                                >                       >   >  
    E  E  S S S S S S S S S S S S    E  E  S S S S S S S S S S S S  
|---------------------------------|--------------------------------|
|---------------------------------|--------------------------------|
|*--------------------------------|--------------------------------|
|*--5--5--5-5---5-5---5-5---5---5-|--5--5--5-5---5-5---5-5---5---5-|
|---------------------------------|--------------------------------|
|---------------------------------|--------------------------------|


  >                                  >                              
  E  E  S S S S S S S S S S S S      E  E  S S S S S S S S S S S S  
---------------------------------||--------------------------------|
---------------------------------||--------------------------------|
--------------------------------*||--------------------------------|
--5--5--5-5---5-5---5-5---5---5-*||--5--5--5-5---5-5---5-5---5---5-|
---------------------------------||--------------------------------|
---------------------------------||--------------------------------|


  >                       >   >  
  E  E  S S S S S S S S S S S S  
--------------------------------|
--------------------------------|
--------------------------------|
--5--5--5-5---5-5---5-5---5---5-|
--------------------------------|
--------------------------------|


   S  S  S  S  S  S  S  S  S  S  S  S  S  S  S  S  
--------------------------------------------------|
--------------------------------------------------|
--------12----10----------------------------------|
--------------------12----13----12----10-12-------|
--10-10----10----10----10----10----10-------10-10-|
--------------------------------------------------|


   S  S  S  S  S  S  S  S  S  S  S  S  Q     
--------------------------------------------|
--------------------------------------------|
--------12----10----------------------------|
--------------------12----13----12----10----|
--10-10----10----10----10----10----10-------|
--------------------------------------------|


   S S  S  S  S  S  S  S  S  S  S  S  S  S  S  S  
-------------------------------------------------|
-------------------------------------------------|
-------12----10----------------------------------|
-------------------12----13----12----10-12-------|
--10-x----10----10----10----10----10-------10-10-|
-------------------------------------------------|


   S  S  S  S  S  S  S  S  S  S  S  S  Q     
--------------------------------------------|
--------------------------------------------|
--------12----10----------------------------|
--------------------12----13----12----------|
--10-10----10----10----10----10----10-10----|
--------------------------------------------|


  S S  S S  S S  S S  S S  S S  S  S S S    E   S S  S S  S S  S S  S S  Q     
-----------------------------------------|------------------------------------|
-----------------------------------------|------------------------------------|
------12---10----------------------------|-----12---10------------------------|
----------------12---13---12---10-12-----|---------------12---13---12---10----|
--8-8----8----8----8----8----8-------8-8-|--8-----8----8----8----8----8-------|
-----------------------------------------|------------------------------------|


  S  S S S S S S S S  S S  S S S S S    S S S S S S S S S S S S S S S S  
-------------------------------------|----------------------------------|
-------------------------------------|----------------------------------|
-----------7-8-7-----------------7-8-|----------5-7-5---------------5-7-|
-------7-8-------8-7---------7-8-----|------5-7-------7-5-------5-7-----|
--6-10---------------10-6-10---------|--5-9---------------9-5-9---------|
-------------------------------------|----------------------------------|


   S  S  S  S  S  S  S  S  S  S  S  S  S  S  S  S  
-----------15----------14----------13-------------|
--------------------------------------------------|
--12-12-12----12-12-12----12-12-12----12-12-12-12-|
--------------------------------------------------|
--------------------------------------------------|
--------------------------------------------------|


   |------5-----|  |-----5-----|                 |------5-----|  
   S  S   S  S  S  S  S  S  S  S   S   S   S  S  S  S   S  S  S  
--12-13p-12-10-------10-----------------------------------------|
---------------14-13----14-11-13h-14p-13p-11-------11p-10-------|
---------------------------------------------12-10--------12-10-|
----------------------------------------------------------------|
----------------------------------------------------------------|
----------------------------------------------------------------|


   S  S  S  S  S  S  S  S  S  S  S  S  S  S  S  S  
-----------15----------14----------13-------------|
--------------------------------------------------|
--12-12-12----12-12-12----12-12-12----12-12-12-12-|
--------------------------------------------------|
--------------------------------------------------|
--------------------------------------------------|


   S  T  T  S  S  S  S  S  S  T  T  T  T  S  S  S  S  S  S  
--12-13-12-10-------10-------------------------------------|
--------------14-13----14-11-13-14-13-11-------11-10-------|
-----------------------------------------12-10-------12-10-|
-----------------------------------------------------------|
-----------------------------------------------------------|
-----------------------------------------------------------|


   Q.         S   S  Q.      E     E   S  S  S S  S S  S S  S S  S S  S S  
--------------------------------|-----------------------------------------|
--11br------(14)-11-------------|-----------------------------------------|
--------------------12------10--|--L--------------------------------------|
--------------------------------|-----12-11-10-8-10-8-10-8------10-8------|
--------------------------------|--------------------------10-8------10-8-|
--------------------------------|-----------------------------------------|


   H          Q      Q       S  S  S  S  S  S  S  S  S  S  S  S  S  S  S  S  
--------------------------|-------------------------------10-14-15-10-14-15-|
--------------------------|-------------------------10-13-------------------|
--------------------------|----------------10-12-14-------------------------|
--------------------12----|----------10-12----------------------------------|
--10b--------10S----------|--9-10-12----------------------------------------|
--------------------------|-------------------------------------------------|


   Q.      S  S  Q.      E       Q.       S    S  Q.      S  S  
--18------17-16-15------20br--|--L------(20)p-18---------22-21-|
------------------------------|------------------20------------|
------------------------------|--------------------------------|
------------------------------|--------------------------------|
------------------------------|--------------------------------|
------------------------------|--------------------------------|


   S  S  S  S  S  S  S  S  S  S  S  S  S  S  S  S  
--20-18-17-20-18-------17-------------------------|
--------------------18----20-19-18----16----15-16-|
-----------------19----------------19----19-------|
--------------------------------------------------|
--------------------------------------------------|
--------------------------------------------------|


   S  S  S  S  S  S  S  S  S  S  S  S  S  S  S  S  
--------------------------------------------------|
--15-------15-------------------------------------|
-----18-17----18-17-15----------------------------|
-----------------------17----17-15-------15-------|
--------------------------17-------17-15----17-15-|
--------------------------------------------------|


   Q.       S   S   H         
-----------------------------|
-----------------------------|
-----------------------------|
-----------------------------|
--12h------13p-12p-10--------|
-----------------------------|


   |--3--|        |--6--|  |--6--|  |--6--|  |--6--|  |--6--|  |--6--|  
   S  S  S  S  S  S  S  S  S  S  S  S  S  S  S  S  S  S  S  S  S  S  S  
--------------------------------------------------------------11-13-15-|
-----------------------------------------------------11-13-15----------|
--------------------------------10-12-14-12-10-12-14-------------------|
-----------------------10-12-15----------------------------------------|
--13-12-13-12-10-12-13-------------------------------------------------|
-----------------------------------------------------------------------|


   Q.      S   S   H         
--17------18p-17p-15--------|
----------------------------|
----------------------------|
----------------------------|
----------------------------|
----------------------------|


   S   T   T  S  S   S   S  S  S   S   T   T   S  S  S   S   S S  
--17h-22p-17----22S-17p-14---------------------------------------|
-------------19------------15------------------------------------|
------------------------------14S-11h-14p-12p-11-----------------|
-------------------------------------------------12--------------|
----------------------------------------------------13p-12p-10-9-|
-----------------------------------------------------------------|


  H.            E   E     Q     E   E  Q     E   E   
-----------------------|----------------------------|
-------------------15--|--L--------14--L--------15--|
-----------------------|----------------------------|
--5------------15------|-------14-----------15------|
--5--------------------|----------------------------|
--3--------------------|----------------------------|


  Q     E   E  Q     E   E     Q     E   E  Q    Q     
----------------------------|-------------------------|
--L--------12--L--------15--|--L--------14--L----x----|
----------------------------|-------------------------|
-------12-----------15------|-------14----------------|
----------------------------|-------------------------|
----------------------------|-------------------------|


   |---6---|  |---6--|   |---6--|   |---6---|   |---6---|  |---6--|   |--6--|   
   S   S   S  S  S   S   S   S  S   S   S   S   S   S   S  S  S   S   S  S  S   
--14p-12p-10-------------------10h-12h-14p-12h-14p-12p-10------------------10h-1
--------------------------------------------------------------------------------
-------------14-12p-11h-12h-14----------------------------14-12p-11h-12-14------
--------------------------------------------------------------------------------
--------------------------------------------------------------------------------
--------------------------------------------------------------------------------


   |---6---|  |--6--|   |---6--|  |--6--|   |---6---|  |--6--|   |---6--|   |---
   S   S   S  S  S  S   S   S  S  S  S  S   S   S   S  S  S  S   S   S  S   S   
--16p-14p-12------------------12-14-16-14h-16p-14p-12------------------12h-14h-1
--------------------------------------------------------------------------------
-------------16-14-13h-14h-16-------------------------16-14-13h-14h-16----------
--------------------------------------------------------------------------------
--------------------------------------------------------------------------------
--------------------------------------------------------------------------------


   |---6---|  |--6--|   |---6--|  |--6--|   |---6---|  |--6--|   |---6--|   |---
   S   S   S  S  S  S   S   S  S  S  S  S   S   S   S  S  S  S   S   S  S   S   
--17p-15p-13------------------13-15-17-15h-17p-15p-13------------------13h-15h-1
--------------------------------------------------------------------------------
-------------17-15-14h-15h-17-------------------------17-15-14h-15h-17----------
--------------------------------------------------------------------------------
--------------------------------------------------------------------------------
--------------------------------------------------------------------------------


   |---6---|  |--6--|   |---6--|  |--6--|   |---6---|  |--6--|   |---6--|   |---
   S   S   S  S  S  S   S   S  S  S  S  S   S   S   S  S  S  S   S   S  S   S   
--19p-17p-15------------------15-17-19-17h-21p-19p-17------------------17h-19h-2
--------------------------------------------------------------------------------
-------------19-17-16h-17h-19-------------------------21-19-18h-19h-21----------
--------------------------------------------------------------------------------
--------------------------------------------------------------------------------
--------------------------------------------------------------------------------


             |-----3-----|                             
   H         Q     Q     Q        H          H         
------------------------------|-----------------------|
--17b--------L----17----15----|--17b------------------|
------------------------------|-------------19--------|
------------------------------|-----------------------|
------------------------------|-----------------------|
------------------------------|-----------------------|


                 |-----3-----|                        |-----3-----|     
   Q      E   E  Q     Q     Q        Q     E      E  Q     Q     Q     
----------------------------------|------------------------------------|
--17b----17b--L--L----17----15----|--18----17pbr--15--L----------------|
----------------------------------|------------------------15----14----|
----------------------------------|------------------------------------|
----------------------------------|------------------------------------|
----------------------------------|------------------------------------|


   Q     E   E   Q.      E      S  S  S  S  S  S  S  S  S  S  S  S  S  S  S  S  
----------------------------|--------------------17----15----------------------|
------------14b--L----------|--15----17----------------------19----17----15----|
--12----11--------------14--|-----14----14-14-14----14----14----14----14----14-|
----------------------------|--------------------------------------------------|
----------------------------|--------------------------------------------------|
----------------------------|--------------------------------------------------|


   Q     H.                S  S   S  S  S   S  S  S  S  S S  S  S S   E   
-----------------------|--17--------15--------14-------12------10--------|
--15----17b------------|-------------------------------------------------|
-----------------------|-----14S-12----12S-11----11S-9----9S-7----7S-14--|
-----------------------|-------------------------------------------------|
-----------------------|-------------------------------------------------|
-----------------------|-------------------------------------------------|


   S  S  S  S  S   S   S  S  S  S  S  S  S   S   S  S  
------------------------------------------------------|
--------15----14S-15S-14----------15----14S-15S-14----|
------------------------------------------------------|
-----16----16------------16----16----16------------16-|
--14------------------------14------------------------|
------------------------------------------------------|


   Q.       E   H           S  S  S S  S   S  S  S  S  S  S   S  S  S  S  S  
-------------------------|--------------------------------------------------|
--17b------17b--L--------|-------12---12S-15-------15----15S-17-------17----|
-------------------------|----11----------------14-----------------16-------|
-------------------------|--9-------9--------12-------12--------14-------14-|
-------------------------|--------------------------------------------------|
-------------------------|--------------------------------------------------|


          |---3---|   |-----3-----|                  |-----3-----|     
   S  E.  E   E   E   Q     Q     Q        H         Q     Q     Q     
---------------------------14----15----|--15b--------L----15----14----|
--17b-L------15--17b--L----------------|------------------------------|
---------------------------------------|------------------------------|
---------------------------------------|------------------------------|
---------------------------------------|------------------------------|
---------------------------------------|------------------------------|


                   |-----3-----|                            
   E    E    Q     Q     Q     Q        H         H         
------------------------------------|------------18--------|
--17br--L--(17)----L----15----14----|--19------------------|
------------------------------------|----------------------|
------------------------------------|----------------------|
------------------------------------|----------------------|
------------------------------------|----------------------|


   H           H            S  S  S S S  S  S S S  S  S S S  S  E   
--19b--------(19)--------|-----------------------------------------|
-------------------------|----12-10-9-9-12-10-9-9-12-10-9-9-12-10--|
-------------------------|-----------------------------------------|
-------------------------|-----------------------------------------|
-------------------------|-----------------------------------------|
-------------------------|-----------------------------------------|


  S  E   S  S E  S E.   S S  S E     S  S  S S S  S  S S S  S  S S S  S  E   
----------------------------------|-----------------------------------------|
--L----------------L--------------|----12-10-9-9-12-10-9-9-12-10-9-9-12-10--|
----13--13-13-9--9-----11-L-13----|-----------------------------------------|
----------------------------------|-----------------------------------------|
----------------------------------|-----------------------------------------|
----------------------------------|-----------------------------------------|


  S E  S S S S S E  S  S S E  S    S  S  S S S  S  S S S  S  S S S  S  E   
--------------------------------|-----------------------------------------|
--L-9--9-9---------------9------|-----------------------------------------|
-----------9-L-9-9--9-11---9----|----13-11-9-9-13-11-9-9-13-11-9-9-13-11--|
--------------------------------|-----------------------------------------|
--------------------------------|-----------------------------------------|
--------------------------------|-----------------------------------------|


  S E  S S E  S S E  S  E  E     E  S S S S S S S S S S  Q      
------------------------------|-----------6-7-9-7-6-----11b----|
------------------------------|---------7-----------9-7--------|
--L-9--9-9-8--8-8-8--8-11--9--|-------6------------------------|
------------------------------|-----8--------------------------|
------------------------------|--------------------------------|
------------------------------|--------------------------------|


  S E.  E   E  H           S  S  S S S  S  S S S  S  S S S  S  E   
--L-L---L--11-----------|-----------------------------------------|
---------------L--------|----12-10-9-9-12-10-9-9-12-10-9-9-12-10--|
------------------------|-----------------------------------------|
------------------------|-----------------------------------------|
------------------------|-----------------------------------------|
------------------------|-----------------------------------------|


  S E  S S E  S E.   S S S E     S  S  S S S  S  S S S  S  S S S  S  E   
------------------------------|-----------------------------------------|
--L-9--9-9---------------9----|----12-10-9-9-12-10-9-9-12-10-9-9-12-10--|
-----------9--9-L---11-L------|-----------------------------------------|
------------------------------|-----------------------------------------|
------------------------------|-----------------------------------------|
------------------------------|-----------------------------------------|


  S E  S S E  S E  S  S  S E  S    S  S  S S S  S  S S S  S  S S S  S  E   
--------------------------------|-----------------------------------------|
--L-9--9-9----------------------|-----------------------------------------|
-----------9--9-9--L-11-13-9----|----13-11-9-9-13-11-9-9-13-11-9-9-13-11--|
--------------------------------|-----------------------------------------|
--------------------------------|-----------------------------------------|
--------------------------------|-----------------------------------------|


                                             |----3----|     
  S S S S S S S S S S S S  E  E     H        Q    Q    Q     
---------------------------------|--------------------------|
---------------------------------|--------------------------|
--L-9-L-9-9-8-L-8-8-8-L-8-11--9--|--L--------8--------------|
---------------------------------|----------------9---------|
---------------------------------|---------------------9----|
---------------------------------|--------------------------|


   |-----3----|                                                                 
   Q     Q    Q    Q     E  E     Q.      H        E     Q.      H         E    
-------------------------------|----------------------|------------------------|
-------------------9b----9--9--|--L-------------------|---------12--------12b--|
--------------8----------------|---------11--------9--|--L---------------------|
--------10---------------------|----------------------|------------------------|
--11---------------------------|----------------------|------------------------|
-------------------------------|----------------------|------------------------|


  Q.      H         E      Q.      Q     Q.         H.            E  E   
------------------------|-----------------------|-----------------------|
--L------12--------16b--|--L------16----16------|--15b------------L--L--|
------------------------|-----------------------|-----------------------|
------------------------|-----------------------|-----------------------|
------------------------|-----------------------|-----------------------|
------------------------|-----------------------|-----------------------|


  9  9     9                                          
  S  Q     Q     E  E   E  E     H.            Q      
------------------------------|----------------------|
--L-17----17----17--L--17--L--|--L------------19b----|
------------------------------|----------------------|
------------------------------|----------------------|
------------------------------|----------------------|
------------------------------|----------------------|


  Q.     E   E      E   Q       H.           E   E   
-----------------------------|------------------12--|
--L------L--19br--(17)--L----|--L------------L------|
-----------------------------|----------------------|
-----------------------------|----------------------|
-----------------------------|----------------------|
-----------------------------|----------------------|


   E    Q     E  E  E   E    E     E   E   E  E  Q    E   E    
---Ls---------------------------|-----------------------------|
--12---12----12--L--L--10S--12--|--L--10S--9--9--L-------11b--|
--------------------------------|-----------------------------|
--------------------------------|-----------------------------|
--------------------------------|-----------------------------|
--------------------------------|-----------------------------|


  E   Q    E  E  Q.        S  S  S  S  S  S  S  S  S  S  S  S  S  S  E   
------------------------|----19-17-16-16-19-17-16-16-19-17-16-16-19-17--|
--L--11----9------------|-----------------------------------------------|
--------------L--L------|-----------------------------------------------|
------------------------|-----------------------------------------------|
------------------------|-----------------------------------------------|
------------------------|-----------------------------------------------|


  E   H        E  Q       S  S  S  S  S  S  S  S  S  S  S  S  S  E.   
--L--16----------------|----16-14-12-12-16-14-12-12-16-14-12-12-15---|
-----------------------|---------------------------------------------|
-----------------------|---------------------------------------------|
-----------------------|---------------------------------------------|
-----------------------|---------------------------------------------|
-----------------------|---------------------------------------------|


  E   Q     E  E   Q.        S  S  S  S  S  S  S  S  S  S  S  S  S  E.   
--L--14-----------12------|----19-17-16-16-19-17-16-16-19-17-16-16-21---|
-----------15--L----------|---------------------------------------------|
--------------------------|---------------------------------------------|
--------------------------|---------------------------------------------|
--------------------------|---------------------------------------------|
--------------------------|---------------------------------------------|


  W                    S  S  S  S  S  S  S  S  S  S  S  S  S  E.   
--L~----------------|----16-14-12-12-16-14-12-12-16-14-12-12-15---|
--------------------|---------------------------------------------|
--------------------|---------------------------------------------|
--------------------|---------------------------------------------|
--------------------|---------------------------------------------|
--------------------|---------------------------------------------|


  E   Q     E   E   E   E   E     H.           E   E      H.            E   E   
--L--14------------------------|-----------------------|---------------12------|
-----------15---L--17--15--17--|--L------------L--15b--|--L----------------12--|
-------------------------------|-----------------------|-----------------------|
-------------------------------|-----------------------|-----------------------|
-------------------------------|-----------------------|-----------------------|
-------------------------------|-----------------------|-----------------------|


                           |---6--|   |--6--|              
   S  S  S  S  S  S  S  S  S  S   S   S  S  S  S  S  S  S  
----------------------------------------------------------|
--15----12------------------------------------------------|
-----14----15-14-12----14-12-14s-15S-14-12----14-12-------|
--------------------14---------------------14-------14-14-|
----------------------------------------------------------|
----------------------------------------------------------|


   Q     S  S  E   S   S  S  S  S  S S S  
-----------------------------------------|
-----------------------------------------|
--12----------12--12S-11-11-11-11S-9-9-9-|
--------14-14----------------------------|
-----------------------------------------|
-----------------------------------------|


                                                               |---3---|   
  S  S  S S S  S  S S S  S  S S S  S  E      E  E   H          E   E   E   
-----------------------------------------|--------------------------------|
-----------------------------------------|---------12b--------12--10--10--|
----13-11-9-9-13-11-9-9-13-11-9-9-13-13--|--11--9-------------------------|
-----------------------------------------|--------------------------------|
-----------------------------------------|--------------------------------|
-----------------------------------------|--------------------------------|


   |--3--|                                                                    
   S  S  S  S S  S  E.  S  S E   S S  S  S     S S  S  S  S  S  E  H          
-------------------------------------------|---------------------------------|
--10-12-10------10-------------------------|---------------------------------|
-----------12-9----12--------9-------------|---------------------------------|
------------------------9-12----12-9-------|-----9---------------------------|
-------------------------------------12-10-|--12---12-10----10---------------|
-------------------------------------------|-------------10----12--L~--------|


  S  S  S  S  S  S  S  S  S  S  S  S  S  S  E     E   E  Q    H         
----19-17-16-16-19-17-16-16-19-17-16-16-19-17--|--L--16--L-------------|
-----------------------------------------------|-----------------------|
-----------------------------------------------|-----------------------|
-----------------------------------------------|-----------------------|
-----------------------------------------------|-----------------------|
-----------------------------------------------|-----------------------|


  S  S  S  S  S  S  S  S  S  S  S  S  S  S  E   
----15-14-12-12-15-14-12-12-15-14-12-12-14-17--|
-----------------------------------------------|
-----------------------------------------------|
-----------------------------------------------|
-----------------------------------------------|
-----------------------------------------------|


  E   E   E   E  E   E   E   E     H.           E   E     H.           E   E   
--L--15--14--12--L------12--12--|--L------------L--14--|--L------------L--15--|
--------------------15----------|----------------------|----------------------|
--------------------------------|----------------------|----------------------|
--------------------------------|----------------------|----------------------|
--------------------------------|----------------------|----------------------|
--------------------------------|----------------------|----------------------|


  Q.      H         E     Q.      H         E   
--L------17--------19--|--L------19b-----------|
-----------------------|-----------------------|
-----------------------|-----------------------|
-----------------------|-----------------------|
-----------------------|-----------------------|
-----------------------|-----------------------|


   |--6--|  |--6--|  |--6--|  |--6--|  |--6--|  |--6--|  |--6--|  |--6--|  
   S  S  S  S  S  S  S  S  S  S  S  S  S  S  S  S  S  S  S  S  S  S  S  S  
--19-17-19-17-16----19-17-19-17-16----19-17-19-17-16----19-17-19-17-22b-L-|
-----------------17----------------17----------------17-------------------|
--------------------------------------------------------------------------|
--------------------------------------------------------------------------|
--------------------------------------------------------------------------|
--------------------------------------------------------------------------|


                                       |--3--|  |---6--|  |---6--|  
  W                    H          E    S  S  S  S   S  S  S  S   S  
--L----------------|------------------12---------------------------|
-------------------|--13b--------13b-----15-12-----12-15-12-----12-|
-------------------|---------------------------12b----------12b----|
-------------------|-----------------------------------------------|
-------------------|-----------------------------------------------|
-------------------|-----------------------------------------------|


   |--6--|   |--6--|  |---6--|  |---6--|  |--6--|   |--6--|               
   S  S  S   S  S  S  S   S  S  S  S   S  S  S  S   S  S  S Q             
-----------------------------------------------------------------|-------|
--15-12-----12-15-12-----12-15-12-----12-15-12-----12-15-12------|-------|
--------12b----------12b----------12b----------12b---------------|-------|
-----------------------------------------------------------------|-------|
-----------------------------------------------------------------|-------|
-----------------------------------------------------------------|-------|


-------|-------|-------|-------|-------|-------|-------|-------|-------|
-------|-------|-------|-------|-------|-------|-------|-------|-------|
-------|-------|-------|-------|-------|-------|-------|-------|-------|
-------|-------|-------|-------|-------|-------|-------|-------|-------|
-------|-------|-------|-------|-------|-------|-------|-------|-------|
-------|-------|-------|-------|-------|-------|-------|-------|-------|


-------||
-------||
-------||
-------||
-------||
-------||




Duration Legend
---------------
W - whole
H - half
Q - quarter
E - 8th
S - 16th
T - 32nd
X - 64th
. - note dotted
|-n-|  - n-tuplets


Tablature Legend
----------------
L - tied note
x - dead note
g - grace note
(n) - ghost note
> - accentuded note
NH - natural harmonic
AH - artificial harmonic
TH - tapped harmonic
SH - semi harmonic
PH - pitch harmonic
h - hammer on
p - pull off
b - bend
br - bendRelease
pb - preBend
pbr - preBendRelease
brb - bendReleaseBend
\n/ - tremolo bar dip
\n - tremolo bar dive
-/n - tremolo bar Release up
/n\ - tremolo bar inverted dip
/n - tremolo bar return
-\n - tremolo bar Release down
S - shift slide
s - legato slide
/ -  slide into from below or out of upwards
\ -  slide into from above or out of downwards
~ - vibrato
W - wide vibrato
tr - trill
TP - tremolo picking
T - tapping
S - slap
P - pop
< - fade in
^ - brush up
v - brush down
comments
We did not receive enough feedback on this tab! Please rate:
print report bad tab
1 2 3 4 5
I want to post or [tab]
guest
You may want to rate the tab now too:
select rating
Please do not post tabs as comments. Select "correction" instead!