Oops, an error
Loading. Please wait.

Believe Me Natalie Bass Tab

4,138 views 24 this week
no commentswrite comment
1 2 3 4 5
excellent!
x 5
Autoscroll
+/-
esc
set tempo
stop
Contributor
WARNING: You are trying to view
                                    content from Ultimate-Guitar.com
                                    in an unauthorized application,
                                    which is prohibited.

                                    Please use an official Ultimate
                                    Guitar Tabs application for iPhone,
                                    iPad or Android to access legitimate
                                    chords, guitar, bass, and drum tabs
                                    from Ultimate-Guitar.com database.

                                    Type "ultimate guitar tabs" in Apple
                                    App Store's or Android Market's
                                    search to find the application.
Intro
G|----------------------------------------------------------------------|
D|----------------------------------------------------------------------|
A|----------------------------------------------------------------------|
E|-/8-88-88-x-8-8-888-88-88-x-8-8-81-11-11-x-1-1-111-11-11-x-1-1-1/-----|

G|--------------------------------------------------------------------|
D|------------------7-77-77-x-7-7-77----------------------------------|
A|-/8-88-88-x-8-8-88----------------5-55-55-x-5-5-555-55-55-x-5-5-55--|
E|--------------------------------------------------------------------|

1st Verse
G|----------------------------------------------------------------------|
D|----------------------------------------------------------------------|
A|----------------------------------------------------------------------|
E|--8-88-88-x-8-8-888-88-88-x-8-8-81-11-11-x-1-1-111-11-11-x-1-1-1/-----|

G|--------------------------------------------------------------------|
D|------------------7-77-77-x-7-7-77----------------------------------|
A|-/8-88-88-x-8-8-88----------------5-55-55-x-5-5-555-55-55-x-5-5-55--|
E|--------------------------------------------------------------------|

G|----------------------------------------------------------------------|
D|----------------------------------------------------------------------|
A|----------------------------------------------------------------------|
E|--8-88-88-x-8-8-888-88-88-x-8-8-81-11-11-x-1-1-111-11-11--------------|

1st Chorus
G|--------------------------------------------------------------------|
D|------------------7-77-77-7-77-77-----------------------------------|
A|-/8-88-88-8-88-88-----------------5-55-55-5-55-55-5-55-55-5-55-57---|
E|--------------------------------------------------------------------|

G|--------------------------------------------------------------------|
D|------------------7-77-77-7-77-77-----------------------------------|
A|--8-88-88-8-88-88-----------------5-55-55-5-55-55-5-55-55-5-55-55---|
E|--------------------------------------------------------------------|

G|--------------------------------------------------------------------|
D|--------------------------------------------------------------------|
A|--------------------------------------------------------------------|
E|--6-66-66--66-6-6-6-66-66--66-6-6-1~--------------------------------|

Interlude
G|--------------------------------------------------------------------|
D|------------------7-77-77-7-77-77-----------------------------------|
A|-/8-88-88-8-88-88-----------------5-55-55-5-55-55-5-55-55-5-55-57---|
E|--------------------------------------------------------------------|

G|--------------------------------------------------------------------|
D|------------------7-77-77-7-77-77-----------------------------------|
A|--8-88-88-8-88-88-----------------5-55-55-5-55-55-5-55-55-5-55-55---|
E|--------------------------------------------------------------------|

2nd Verse
G|----------------------------------------------------------------------|
D|----------------------------------------------------------------------|
A|----------------------------------------------------------------------|
E|--8~------------8-8~------------81~-----------------------------------|

2nd Chorus
G|--------------------------------------------------------------------|
D|------------------7-77-77-7-77-77-----------------------------------|
A|-/8-88-88-8-88-88-----------------5-55-55-5-55-55-5-55-55-5-55-57---|
E|--------------------------------------------------------------------|

G|--------------------------------------------------------------------|
D|------------------7-77-77-7-77-77-----------------------------------|
A|--8-88-88-8-88-88-----------------5-55-55-5-55-55-5-55-55-5-55-55---|
E|--------------------------------------------------------------------|

G|----------------------------------------------------------------------|
D|-----------------------------------------------------------7777-------|
A|----------------------------------------------------------------------|
E|--6-66-66--66-6-6-6-66-66--66-6-6-5-55-55--55-5-5-5-55-55-------------|

Bridge
G|--------------------------------------------------------------------|
D|----------------------------------7-7-5-5---------------------------|
A|--5-5-5-5-5-5-5-5-5-5-7-7-8-8-7-7---------8-8-7-7-5-5-3-3-----------|
E|----------------------------------------------------------5-5-5-3---|

G|--------------------------------------------------------------------|
D|--------------------------------------------------------------------|
A|--5-5-5-5-5-5-5-5-5-5-7-7-8-8-7-7-----------------------------------|
E|----------------------------------3~--------------4~----------------|

G|--------------------------------------------------------------------|
D|--------------------------------------------------------------------|
A|--------------------------------------------------------------------|
E|--5-5-5-5-5-5-5-5-3-3-3-3-3-3-3-3-1-1-1-1-1-1-1-1-1-1-1-1-1-1-------|

3rd Chorus
G|--------------------------------------------------------------------|
D|------------------7-77-77-7-77-77-----------------------------------|
A|-/8-88-88-8-88-88-----------------5-55-55-5-55-55-5-55-55-5-55-57---|
E|--------------------------------------------------------------------| X2

G|--------------------------------------------------------------------|
D|------------------7-77-77-7-77-77-----------------------------------|
A|--8-88-88-8-88-88-----------------5-55-55-5-55-55-5-55-55-5-55-55---|
E|--------------------------------------------------------------------|

G|--------------------------------------------------------------------|
D|--------------------------------------------------------------------|
A|--3-33-33-3-33-33-3-33-33-3-33-33-----------------------------------|

E|----------------------------------3-33-33-3-33-33-3-33-33-3-33-33---|

G|--------------------------------------------------------------------|
D|--------------------------------------------------------------------|
A|----------------------------------5-5-5-5-5-5-5-5-5-5-5-5-5-5-5-5---|
E|--1-------------1/5-------------------------------------------------|

G|--------------------------------------------------------------------|
D|--------------------------------------------------------------------|
A|--3-33-33-3-33-33-3-33-33-3-33-33-----------------------------------|
E|----------------------------------3-33-33-3-33-33-4-44-44-4-4-4-4---|

Outro
G|--------------------------------------------------------------------|
D|--------------------------------------------------------------------|
A|--------------------------------------------------------------------|
E|--5-5-5-5-5-5-5-5-7-7-7-7-7-7-7-7-8~-----------------------8h10p8---|

G|--------------------------------------------------------------------|
D|--------------------------------------------------------------------|
A|--------------------------------------------------------------------|
E|--5~----------------------------5/8~-----------------------8h10p8---|

G|----------------------------------------------------------------------|
D|----------------------------------------------------------------------|
A|----------------------------------------------------------------------|
E|--5~----------------------------53-------------31-------------1/------|

G|------------------------------------|
D|------------------------------------|
A|------------------------------------|
E|-/6~--------------------------------|
I want to post or [tab]
guest
You may want to rate the tab now too:
select rating
Please do not post tabs as comments. Select "correction" instead!