Oops, an error
Loading. Please wait.

This River Is Wild Bass Tab

2,322 views 3 this week
no commentswrite comment
1 2 3 4 5
excellent!
x 1
Autoscroll
+/-
esc
set tempo
stop
Contributor
WARNING: You are trying to view
                                    content from Ultimate-Guitar.com
                                    in an unauthorized application,
                                    which is prohibited.

                                    Please use an official Ultimate
                                    Guitar Tabs application for iPhone,
                                    iPad or Android to access legitimate
                                    chords, guitar, bass, and drum tabs
                                    from Ultimate-Guitar.com database.

                                    Type "ultimate guitar tabs" in Apple
                                    App Store's or Android Market's
                                    search to find the application.
Artist: The Killers
Song: This River is Wild


Intro

F#|---------------------------------------------|
C#|---------------------------------------------|
G#|-4-6-----------5---------------------4---4-6-|
D#|-----7-------9----------5-7-4------4---------|


F#|--------------------------|
C#|--------------------------|
G#|--------------------------|
D#|-7----9-5---5-7-4----4-0--|


Verse

F#|-------------------------------------------------------------------|
C#|-------------------------------------------------------------------|
G#|---------------------------------4-4-4-4-4-4-4-4-4-4-4-4-4-4-4-4-2-|
D#|-0-0-0-0-0-0-0-0-0-0-0-0-0-0-2-4-----------------------------------|


F#|---------------------------------------------|
C#|---------------------------------------------|
G#|---------------------------------------------|
D#|4-0-0-0-0-0-0-0-0-0-0-0-0-0-0----------------|

F#|---------------------------------------------------------------------|
C#|---------------------------------------------------------------------|
G#|-----4-4-4-4-4-4-4-4-4-4-4-4-4-4-2-----------------------------------|
D#|-2-4-------------------------------4-0-0-0-0-0-0-0-0-0-0-0-0-0-0-2-4-|

F#|------------------------------|
C#|------------------------------|
G#|-4-4-4-4-4-4-4-4-4-4-4-4-4-4--|
D#|------------------------------|

F#|-------------------------------------------------------------------|
C#|-------------------------------------------------------------------|
G#|-2-----------------------------------4-4-4-4-4-4-4-4-4-4-4-4-4-4---|
D#|---4-0-0-0-0-0-0-0-0-0-0-0-0-0-0-2-4-------------------------------|

Bridge

F#|---------------------------------------------------------------------|
C#|---------------------------------------------------------------------|
G#|-2-------------------------------------------------------------------|
D#|---2-5-5-5-5-5-5-5-5-4-4-4-4-4-4-4-4-2-2-2-2-2-2-2-2-0-0-0-0-0-0-0-0-|

F#|---------------------------------------------------------|
C#|-----------------7-7-7-7-7-7-7-7-6-6-6-6-6-6-9-9-9-9-9-9-|
G#|-7-7-7-7-7-7-7-7-----------------------------------------|
D#|---------------------------------------------------------|


Verse
F#|-----------------------------------------------------------------|
C#|-9-9-------------------------------------------------------------|
G#|-------------------------------------4-4-4-4-4-4-4-4-4-4-4-4-4-4-|
D#|-----0-0-0-0-0-0-0-0-0-0-0-0-0-0-2-4-----------------------------|


Bridge 2

F#|-----------------------------------------------|
C#|-----------------------------------------------|
G#|-2-0-9-9-9-7-9-9-9-9-11-11-11-9-11-11-11-11-11-|
D#|-----------------------------------------------|

F#|-------------------------------------------|
C#|-------------------------------------------|
G#|-12-12-12-12-12-12-12-12-14-14-14-14-14-14-|
D#|-------------------------------------------|


Chorus

F#|---------------------------------------------------------------|
C#|---------------------------------------------------------------|
G#|-14-14-7-7-7-7-7-7-7-7-7-7-7-7-7-7-7-7-4-4-4-4-4-4-4-4-4-4-4-4-|
D#|---------------------------------------------------------------|

F#|--------------------------------------------------------------------|
C#|--------------------------------------------------------------------|
G#|--------7-7-7-7-7-7-7-7-7-7-7-7-7-7-7-7-4-4-4-4-4-4-4-4-4-4-4-4-----|
D#|7-7-7-7---------------------------------------------------------7-7-|

F#|---------------------------------------------------------------------|
C#|---------------------------------------------------------------------|
G#|-----------------------------------------------------2-2-2-2-2-2-2-2-|
D#|-7-7-5-5-5-5-5-5-5-5-5-5-5-5-5-5-5-5-2-2-2-2-2-2-2-2-----------------|

F#|---------------------------------------------------------------|
C#|---------------------------------------------------------------|
G#|-----------------------------4------------4---------2----------|
D#|-0-------------0-----------4--------------------------0------0-|

F#|-------------------------------------------------------------|
C#|-------------------------------------------------------------|
G#|-----4---------------2---------------------------------------|
D#|---4-------------------------0-0-0-0-0-0-0-0-0-0-0-0-0-0-2-4-|

F#|----------------------------------------------------------------------|
C#|----------------------------------------------------------------------|
G#|-4-4-4-4-4-4-4-4-4-4-4-4-4-4------------------------------------------|
D#|----------------------------------------------------------------------|

Bridge 3

F#|-----------------------------------------------|
C#|-----------------------------------------------|
G#|-2-0-9-9-9-7-9-9-9-9-11-11-11-9-11-11-11-11-11-|
D#|-----------------------------------------------|

---------------------------------------------------|
---------------------------------------------------|
-12-12-12-12-12-12-12-12-14-14-14-14-14-14-14-14---|
-------------------------------------------------0-|

Bridge 4


F#|-------------------------------------------------------------|
C#|-------------------------------------------------------------|
G#|-------------------------------------------------2-2-2-2-2-2-|
D#|-5-5-5-5-5-5-5-5-5-5-5-5-5-5-5-5-2-2-2-2-2-2-2-2-------------|

Intro

F#|----------------------------------------------------------------------|
C#|----------------------------------------------------------------------|
G#|-4-6-----------5---------------------4---4-6--------------------------|
D#|-----7-------9----------5-7-4------4---------7----9-5---5-7-4----4-0--|

Verse


F#|-------------------------------------------------------------------|
C#|-------------------------------------------------------------------|
G#|---------------------------------4-4-4-4-4-4-4-4-4-4-4-4-4-4-4-4-2-|
D#|-0-0-0-0-0-0-0-0-0-0-0-0-0-0-2-4-----------------------------------|

F#|------------------------------------------------------------------|
C#|------------------------------------------------------------------|
G#|----------------------------------4-4-4-4-4-4-4-4-4-4-4-4-4-4-4-4-|
D#|4-0-0-0-0-0-0-0-0-0-0-0-0-0-0-2-4---------------------------------|

Bridge

F#|---------------------------------------------------------------------|
C#|---------------------------------------------------------------------|
G#|-2-------------------------------------------------------------------|
D#|---4-5-5-5-5-5-5-5-5-4-4-4-4-4-4-4-4-2-2-2-2-2-2-2-2-0-0-0-0-0-0-0-0-|

F#|--------------------------------------------------------------|
C#|--------------------------------------------------------------|
G#|--------------------------------------------------------------|
D#|-9-9-9-7-9-9-9-9-11-11-11-9-11-11-11-11-12-12-12-12-12-12-12--|

F#|----------------------|
C#|----------------------|
G#|----------------------|
D#|-12-14-14-14-14-14-14-|


Chorus

F#|-------------------------------------------------------|
C#|-------------------------------------------------------|
G#|-14-14-------------------------------------------------|
D#|-------0-0-0-0-0-0-0-0-0-0-0-0-0-0-0-0-5-5-5-5-5-5-5-5-|

F#|---------------------------------------------------------------------------|
C#|---------------------------------------------------------------------------|
G#|-----------------2-2-2-2-2-2-2-2-4-4-4-4-4-4-4-4---------------------------|
D#|-4-4-4-4-4-4-4-4---------------------------------0-0-0-0-0-0-0-0-5-5-5-5-5-|

F#|-----------------------------------------------------|
C#|-----------------------------------------------------|
G#|-----------------------------------------------------|
D#|-5-5-5-5-5-5-5-5-5-5-5-5-5-5-5-5-5-5-2-2-2-2-2-2-2-2-|

F#|---------------------------------------------------------------------------|
C#|---------------------------------------------------------------------------|
G#|-2-2-2-2-2-2-2-2---------------------------------2-2-2-2-2-2-2/14-14-14-14-|
D#|-----------------5-5-5-5-5-5-5-5-5-5-5-5-5-5-5-5---------------------------|

Outro

F#|----------------------------------------------------------------------|
C#|----------------------------------------------------------------------|
G#|-4-6-----------5---------------------4---4-6--------------------------|
D#|-----7-------9----------5-7-4------4---------7----9-5---5-7-4----4-0--| x2
comments
We did not receive enough feedback on this tab! Please rate:
1 2 3 4 5
I want to post or [tab]
guest
You may want to rate the tab now too:
select rating
Please do not post tabs as comments. Select "correction" instead!