Oops, an error
Loading. Please wait.

This River Is Wild Tab

ver2
ver2

Whole song

More versions @911Tabs.com
9,448 views 15 this week
no commentswrite comment
1 2 3 4 5
excellent!
x 2
Autoscroll
+/-
esc
set tempo
stop
Contributor
Difficulty
Tuning
novice
D# G# C# F# A# D#
WARNING: You are trying to view
                                    content from Ultimate-Guitar.com
                                    in an unauthorized application,
                                    which is prohibited.

                                    Please use an official Ultimate
                                    Guitar Tabs application for iPhone,
                                    iPad or Android to access legitimate
                                    chords, guitar, bass, and drum tabs
                                    from Ultimate-Guitar.com database.

                                    Type "ultimate guitar tabs" in Apple
                                    App Store's or Android Market's
                                    search to find the application.
-------------------------------------------------------------------------
                             This River Is Wild - The Killers
-------------------------------------------------------------------------
Tabbed by: ManBearPig41
Tuning: Half-step (Eb Ab Db Gb Bb Eb)

This is how I play it. I'm pretty sure that it's at least 97% correct. It's in half-step 
so tune to Eb Standard if you plan on playing along with the song.

Intro:
e|------------------------------|
B|------------------------------|
G|-6-8--4~--6-----2-4--------6~-|
D|-x-x--x---x-7~--x-x-6~---7-x--|
A|-4-6--2~--4-x---0-2-x----x-4~-|
E|------------5~------4~---5----|

e|------------------------------|
B|------------------------------|
G|-6-8--4~--6-----2-4-----------|
D|-x-x--x---x-7~--x-x-6~--7-----|
A|-4-6--2~--4-x---0-2-x---x-----|
E|------------5~------4~--5-----|

e|---------------------------|
B|-9999-9999-9999------------|
G|-9999-9999-9999-8888--9~---|
D|-xxxx-xxxx-xxxx-xxxx--x----|
A|-7777-7777-7777-6666--7~---|
E|-0000-0000-0000-xxxx--0~---|

Verse (Repeat as needed):
e|-------------------------------------------------------|
B|-------------------------------------------------------|
G|-4444444444444-------6666666666666-4-------------------|
D|-2222222222222-4-4-6-6666666666666-4-6-4---------------|
A|-2222222222222-4-4-6-4444444444444-2-6-4---------------|
E|-0000000000000-2-2-4-4444444444444---4-2---------------|

Interlude Rhythm (After First Verse):
e|-------------------------------------------------------------------------|
B|-------------------------------------------------------------------------|
G|----------------------------66666666----------22222222----------44444444-|
D|-77777777-66666666-44444444-66666666-22222222-22222222-22222222-44444444-|
A|-77777777-66666666-44444444-44444444-22222222-00000000-22222222-22222222-|
E|-55555555-44444444-22222222----------00000000----------00000000----------|

Interlude Lead (After First Verse):
e|-------5-5-5-4--------------------2-2-2-0---------------|
B|-----5-------------5-7-7-7-5----2------------0-5-5-4----|
G|---6-------------4------------2------------1--------4---|
D|-7-------------6------------4------------2--------------|
A|--------------7-----------------------------------------|
E|--------------------------------------------------------|

e|------------------------------------------------7-7-5-4-----|
B|-------5-5-4--------5-5-4-5------5-5-4--------4-------------|
G|-----4------4-----4------------4------4-----4---------------|
D|---6-------------6------------6------------4----------------|
A|--7------------7------------7------------6------------------|
E|------------------------------------------------------------|

Verse 2 Rhythm (Repeat as needed):
e|-------------------------------------------------------|
B|-------------------------------------------------------|
G|-4444444444444-------6666666666666-4-------------------|
D|-2222222222222-4-4-6-6666666666666-4-6-4---------------|
A|-2222222222222-4-4-6-4444444444444-2-6-4---------------|
E|-0000000000000-2-2-4-4444444444444---4-2---------------|

Verse 2 Lead:
e|-4-4-------7-7-4-5~--4-(4)-------------------------------|
B|-----7-5~-----------------7-5~---------------------------|
G|---------------------------------------------------------|
D|---------------------------------------------------------|
A|---------------------------------------------------------|
E|---------------------------------------------------------|

Pre-Chorus:
e|---------------------------0--------------------------------0-----------------|
B|----------0------------------0-------------0------------------0---------------|
G|-----2------2---2------4--------4------6-----6---6-----8--------8-------------|
D|---4---4------4------6---6----6------7---7-----7-----9---9--------9-----------|
A|-4-----------------6---------------7---------------9--------------------------|
E|------------------------------------------------------------------------------|

Chorus:
e|-----------------------------------------------|
B|-9999-9999-9999--------------------------------|
G|-9999-9999-9999-8888-9999-9999-9999-8888-------|
D|-xxxx-xxxx-xxxx-xxxx-xxxx-xxxx-xxxx-xxxx-------|
A|-7777-7777-7777-6666-7777-7777-7777-6666-------|
E|-0000-0000-0000------9999-9999-9999------------|

e|-----------------------------------------------|
B|-9999-9999-9999--------------------------------|
G|-9999-9999-9999-8888-9999-9999-9999-8888-------|
D|-xxxx-xxxx-xxxx-xxxx-xxxx-xxxx-xxxx-xxxx-------|
A|-7777-7777-7777-6666-7777-7777-7777-6666-------|
E|-0000-0000-0000------9999-9999-9999-7777-------|

Chorus pt. 2 Rhythm:
e|---------------------------------------------------------------------------|
B|---------------------------------------------------------------------------|
G|------------4--------------------------------------------------------------|
D|-7-----4----4--------------------------------------------------------------|
A|-7-x16-4-x8-2-x8-----------------------------------------------------------|
E|-5-----2-------------------------------------------------------------------|

Chorus pt. 2 Lead:
e|-------------445-5/7-5-4-4/5-----------------------------|
B|-----555-777---------------------------------------------|
G|-666-----------------------------------------------------|
D|---------------------------------------------------------|
A|---------------------------------------------------------|
E|---------------------------------------------------------|

Interlude:                            |1st ending  |2nd ending
e|------------------------------------|------------|---------|
B|-9999-9999-9999---------------------|------------|---------|
G|-9999-9999-9999-8888-9999-9999-9999-|-8888-------|----8----|
D|-xxxx-xxxx-xxxx-xxxx-xxxx-xxxx-xxxx-|-xxxx-------|----x----|
A|-7777-7777-7777-6666-7777-7777-7777-|-6666-------|----6----|
E|---------------------9999-9999-9999-|------------|---------|

Verse 3 (Repeat as needed):
e|-------------------------------------------------------|
B|-------------------------------------------------------|
G|-4444444444444-------6666666666666-4-------------------|
D|-2222222222222-4-4-6-6666666666666-4-6-4---------------|
A|-2222222222222-4-4-6-4444444444444-2-6-4---------------|
E|-0000000000000-2-2-4-4444444444444---4-2---------------|

Pre-Chorus:
e|---------------------------0--------------------------------0-----------------|
B|----------0------------------0-------------0------------------0---------------|
G|-----2------2---2------4--------4------6-----6---6-----8--------8-------------|
D|---4---4------4------6---6----6------7---7-----7-----9---9--------9-----------|
A|-4-----------------6---------------7---------------9--------------------------|
E|------------------------------------------------------------------------------|

Bridge (Quiet Chorus):
e|---------------------------------------------------------|
B|---------------------------------------------------------|
G|---------------------------------------------------------|
D|-(2)-----------------------------------------------------|
A|-(2)-----------------------------------------------------|
E|--0~-----------------------------------------------------|

Bridge pt. 2 Rhythm:
e|---------------------------------------------------------------------------|
B|---------------------------------------------------------------------------|
G|------------4----6-8-4~-6----2-4-----6~--6-8----6----2-4-------------------|
D|-7-----4----4----x-x-x--x-7~-x-x-6-7-x---x-x-9~-x-7~-x-x-6~--7-------------|
A|-7-x16-4-x8-2-x6-4-6-2~-4-x--0-2-x-x-4~--4-6-x--4-x--0-2-x---x-------------|
E|-5-----2------------------5~-----4-5---------7~---5~-----4~--5-------------|

Bridge pt. 2 Lead:
e|-------------445-5/7-5-4/5-------------------------------------------------|
B|-----555-777---------------------------------------------------------------|
G|-666-----------------------------------------------------------------------|
D|---------------------------------------------------------------------------|
A|---------------------------------------------------------------------------|
E|---------------------------------------------------------------------------|

Verse 4(Repeat as needed):
e|-------------------------------------------------------|
B|-------------------------------------------------------|
G|-4444444444444-------6666666666666-4-------------------|
D|-2222222222222-4-4-6-6666666666666-4-6-4---------------|
A|-2222222222222-4-4-6-4444444444444-2-6-4---------------|
E|-0000000000000-2-2-4-4444444444444---4-2---------------|

Verse 4 pt. 2/Pre-chorus:
e|--------------------------0---------------------------------0-----------------|
B|----------0-----------------0-------------0-------------------0---------------|
G|-----6------6---6-----4--------4-----2------2-----------1-------1-------------|
D|---7---7------7-----6---6----6-----4---4------4---4---2---2-------2-----------|
A|-7----------------6--------------4--------------4-----------------------------|
E|----------------------------------------------------0-------------------------|

e|---------------------------0--------------------------------0-----------------|
B|----------0------------------0-------------0------------------0---------------|
G|-----2------2---2------4--------4------6-----6---6-----8--------8-------------|
D|---4---4------4------6---6----6------7---7-----7-----9---9--------9-----------|
A|-4-----------------6---------------7---------------9--------------------------|
E|------------------------------------------------------------------------------|

Final Chorus:
e|-------------------------------------------------------------------------|
B|-------------------------------------------------------------------------|
G|-------2---------4----6---------2---------------4----2-----4-------------|
D|-2-----2----6----4----6----2----2----7-----4----4----2-----4-------------|
A|-2-x16-0-x8-7-x8-2-x8-4-x8-2-x8-0-x8-7-x16-4-x8-2-x8-0-x16-2-x16---------|
E|-0----------4--------------0---------5-----2-----------------------------|

Final Chorus Lead:
e|-------------445-5/7-5-4-2-222--/7-777777----------------------------------|
B|-----555-777-------------2-222--/7-777777----------------------------------|
G|-666----------------------------/8-888888----------------------------------|
D|---------------------------------------------------------------------------|
A|---------------------------------------------------------------------------|
E|---------------------------------------------------------------------------|

e|-------------445-5/7-5-4--------/7-777777----------------------------------|
B|-----555-777--------------------/7-777777----------------------------------|
G|-666---------------------8-888--/8-888888----------------------------------|
D|-------------------------9-999---------------------------------------------|
A|---------------------------------------------------------------------------|
E|---------------------------------------------------------------------------|

Bridge pt. 2 (Revisited) Rhythm:
e|------------------------------------------------------------|
B|------------------------------------------------------------|
G|--6-8-4~-6----2-4-----6~--6-8----6----2-4-------------------|
D|--x-x-x--x-7~-x-x-6-7-x---x-x-9~-x-7~-x-x-6~--7-------------|
A|--4-6-2~-4-x--0-2-x-x-4~--4-6-x--4-x--0-2-x---x-------------|
E|-----------5~-----4-5---------7~---5~-----4~--5-------------|

e|------------------------------------------------------------|
B|------------------------------------------------------------|
G|--6-8-4~-6----2-4-----6~--6-8----6----2-4-------------------|
D|--x-x-x--x-7~-x-x-6-7-x---x-x-9~-x-7~-x-x-6~--7-------------|
A|--4-6-2~-4-x--0-2-x-x-4~--4-6-x--4-x--0-2-x---x-------------|
E|-----------5~-----4-5---------7~---5~-----4~--5-------------|

Bridge pt.2 (Revisited) Lead (all tremolo picked):
e|-7tp-9tp-7tp-5tp-5tp-4tp-0tp----------------------------------------------|
B|--------------------------------------------------------------------------|
G|---------------------------------Repeat until Coda------------------------|
D|--------------------------------------------------------------------------|
A|--------------------------------------------------------------------------|
E|--------------------------------------------------------------------------|

Coda Rhythm:
e|---------------------------------------------------------------------------|
B|---------------------------------------------------------------------------|
G|---------------------------------------------------------------------------|
D|-(2)-----------------------------------------------------------------------|
A|---------------------------------------------------------------------------|
E|--0~-----------------------------------------------------------------------|

Coda Lead:
e|--0~-----------------------------------------------------------------------|
B|---------------------------------------------------------------------------|
G|---------------------------------------------------------------------------|
D|---------------------------------------------------------------------------|
A|---------------------------------------------------------------------------|
E|---------------------------------------------------------------------------|

So That's the tab.


| /  slide up
| \  slide down
| h  hammer-on
| p  pull-off
| ~  vibrato
| +  harmonic
| x  Mute note
===============================================================================
comments
We did not receive enough feedback on this tab! Please rate:
print report bad tab
1 2 3 4 5
I want to post or [tab]
guest
You may want to rate the tab now too:
select rating
Please do not post tabs as comments. Select "correction" instead!