Oops, an error
Loading. Please wait.

Who Let You Go Bass Tab

ver1
ver1

Whole song

Interactive

More versions @911Tabs.com
748 views 1 this week
no commentswrite comment
1 2 3 4 5
excellent!
x 2
add to favorites launch autoscroll
font size
0
reset
Autoscroll
+/-
esc
set tempo
stop
Contributor
WARNING: You are trying to view
                                    content from Ultimate-Guitar.com
                                    in an unauthorized application,
                                    which is prohibited.

                                    Please use an official Ultimate
                                    Guitar Tabs application for iPhone,
                                    iPad or Android to access legitimate
                                    chords, guitar, bass, and drum tabs
                                    from Ultimate-Guitar.com database.

                                    Type "ultimate guitar tabs" in Apple
                                    App Store's or Android Market's
                                    search to find the application.
Song     :Who Let You Go (Bass)
Artist   :The Killers
Tabbed By:Chirantan
E-Mail   :chirantan.pal@gmail.com

                                
G||-----------------------------|-------------------------------|
D||-----------------------------|-----------------------6--6--6-|
A||-----------------------------|----------11--11---------------|
E||-----------------16g16~---\--|--4--4s-9---------4--4---------|


-------------------------------|----------------------------------|
-----------------------6--6--6-|----------11--11-------11--11--11-|
----------11--11---------------|--4--4s-9-------------------------|
--4--4s-9---------4--4---------|------------------9--9------------|

 
----------------------------------|-------------------------------|
----------11--11-------11--11--11-|-----------------------6--6--6-|
--4--4s-9-------------------------|----------11--11---------------|
------------------9--9------------|--4--4s-9---------4--4---------|


-------------------------------|----------------------------------|
-----------------------6--6--6-|----------11--11-------11--11--11-|
----------11--11---------------|--4--4s-9-------------------------|
--4--4s-9---------4--4---------|------------------9--9------------|


----------------------------------|-------------------------------|
----------11--11-------11--11--11-|-------------------------------|
--4--4s-9-------------------------|----------11--11---------------|
------------------9--9------------|--4--4s-9---------4--4-4--4--4-|


-------------------------------|-------------------------------|
-------------------------------|----------11--11---------------|
----------11--11---------------|--4--4s-9---------4--4-4--4--4-|
--4--4s-9---------4--4-4--4--4-|-------------------------------|


-------------------------------|-------------------------------|
----------11--11---------------|-------------------------------|
--4--4s-9---------4--4-4--4--4-|----------11--11---------------|
-------------------------------|--4--4s-9---------4--4-4--4--4-|


-------------------------------|-------------------------------|
-------------------------------|----------11--11---------------|
----------11--11---------------|--4--4s-9---------4--4-4--4--4-|
--4--4s-9---------4--4-4--4--4-|-------------------------------|

     
-------------------------------|--------------------------|
----------11--11---------------|--------------------------|
--4--4s-9---------4--4-4--4--4-|--------------------------|
-------------------------------|--6--6--6--6--6--6--6--6--|


---------------------------|-------------------------------|
---------------------------|-----------------------6--6--6-|
--4--4--4--4--4--4--4---\--|----------11--11---------------|
---------------------------|--4--4s-9---------4--4---------|


-------------------------------|----------------------------------|
-----------------------6--6--6-|----------11--11-------11--11--11-|
----------11--11---------------|--4--4s-9-------------------------|
--4--4s-9---------4--4---------|------------------9--9------------|


----------------------------------|-------------------------------|
----------11--11-------11--11--11-|-------------------------------|
--4--4s-9-------------------------|----------11--11---------------|
------------------9--9------------|--4--4s-9---------4--4-4--4--4-|


-------------------------------|-------------------------------|
-------------------------------|----------11--11---------------|
----------11--11---------------|--4--4s-9---------4--4-4--4--4-|
--4--4s-9---------4--4-4--4--4-|-------------------------------|

       
-------------------------------|---------------------|
----------11--11---------------|---------------------|
--4--4s-9---------4--4-4--4--4-|---------------------|
-------------------------------|--4------------------|


--------------------------|-----------------------6--6--6-|
--------------------------|----------11--11---------------|
--------------3--3--4--4--|--4--4s-9---------4--4---------|
--4--4--4--4--------------|-------------------------------|


-----------------------6--6--6-|---------------------------|
----------11--11---------------|---------------------------|
--4--4s-9---------4--4---------|-------------------------3-|
-------------------------------|--6--6--6--6--6--6--6--6---|


---------------------------|-------------------------------|
---------------------------|-----------------------6--6--6-|
--4--4--4--4--4--4--4---\--|----------11--11---------------|
---------------------------|--4--4s-9---------4--4---------|


-------------------------------|----------------------------------|
-----------------------6--6--6-|----------11--11-------11--11--11-|
----------11--11---------------|--4--4s-9-------------------------|
--4--4s-9---------4--4---------|------------------9--9------------|

 
----------------------------------|-------------------------------|
----------11--11-------11--11--11-|-----------------------6--6--6-|
--4--4s-9-------------------------|----------11--11---------------|
------------------9--9------------|--4--4s-9---------4--4---------|


-------------------------------|----------------------------------|
-----------------------6--6--6-|----------11--11-------11--11--11-|
----------11--11---------------|--4--4s-9-------------------------|
--4--4s-9---------4--4---------|------------------9--9------------|

                   
------------------------------------|--------------------------|
----------11--11--11--11-11--11--11-|--------------------------|
--4--4s-9---------------------------|--6--6--6--6--6--6--6--6--|
------------------------------------|--------------------------|

                
---------------------------|---------------------------------|
---------------------------|---------------------------------|
--4--4--4--4--4--4--4---\--|---------------------------------|
---------------------------|--1--1--s-13--13--1--1s--13--13--|

                                      
---------------------------------|--------------------------|
---------------------------------|--------------------------|
---------------------------------|--6--6--6--6--6--6--6--6--|
--1--1--s-13--13--1--1s--13--13--|--------------------------|

       
-----------------------|-------------------|-----------|
-----------------------|-------------------|-----------|
--4--4--4--4--4--------|-------------------|-----------|
-----------------------|-------------------|-----------|


-------------------------------|-------------------------------|
-----------------------6--6--6-|-----------------------6--6--6-|
----------11--11---------------|----------11--11---------------|
--4--4s-9---------4--4---------|--4--4s-9---------4--4---------|


----------------------------------|----------------------------------|
----------11--11-------11--11--11-|----------11--11-------11--11--11-|
--4--4s-9-------------------------|--4--4s-9-------------------------|
------------------9--9------------|------------------9--9------------|


-------------------------------|-------------------------------|
-----------------------6--6--6-|-----------------------6--6--6-|
----------11--11---------------|----------11--11---------------|
--4--4s-9---------4--4---------|--4--4s-9---------4--4---------|


----------------------------------|------------------------------------|
----------11--11-------11--11--11-|----------11--11--11--11-11--11--11-|
--4--4s-9-------------------------|--4--4s-9---------------------------|
------------------9--9------------|------------------------------------|


-------------------------------|-------------------------------|
-----------------------6--6--6-|-----------------------6--6--6-|
----------11--11---------------|----------11--11---------------|
--4--4s-9---------4--4---------|--4--4s-9---------4--4---------|


----------------------------------|----------------------------------|
----------11--11-------11--11--11-|----------11--11-------11--11--11-|
--4--4s-9-------------------------|--4--4s-9-------------------------|
------------------9--9------------|------------------9--9------------|


-------------------------------|-------------------------------|
-----------------------6--6--6-|-----------------------6--6--6-|
----------11--11---------------|----------11--11---------------|
--4--4s-9---------4--4---------|--4--4s-9---------4--4---------|


----------------------------------|------------------------------------|
----------11--11-------11--11--11-|----------11--11--11--11-11--11--11-|
--4--4s-9-------------------------|--4--4s-9---------------------------|
------------------9--9------------|------------------------------------|


-------------------------------|-------------------------------|
-----------------------6--6--6-|-----------------------6--6--6-|
----------11--11---------------|----------11--11---------------|
--4--4s-9---------4--4---------|--4--4s-9---------4--4---------|

 
----------------------------------|----------------------------------|
----------11--11-------11--11--11-|----------11--11-------11--11--11-|
--4--4s-9-------------------------|--4--4s-9-------------------------|
------------------9--9------------|------------------9--9------------|


-------------------------------|-------------------------------|
-----------------------6--6--6-|-----------------------6--6--6-|
----------11--11---------------|----------11--11---------------|
--4--4s-9---------4--4---------|--4--4s-9---------4--4---------|


----------------------------------|----------------------------------|
----------11--11-------11--11--11-|----------11--11-------11--11--11-|
--4--4s-9-------------------------|--4--4s-9-------------------------|
------------------9--9------------|------------------9--9------------|


-------------------------------|-------------------------------|
-----------------------6--6--6-|-----------------------6--6--6-|
----------11--11---------------|----------11--11---------------|
--4--4s-9---------4--4---------|--4--4s-9---------4--4---------|

 
----------------------------------|----------------------------------|
----------11--11-------11--11--11-|----------11--11-------11--11--11-|
--4--4s-9-------------------------|--4--4s-9-------------------------|
------------------9--9------------|------------------9--9------------|


-------------------------------|-------------------------------|
-----------------------6--6--6-|-----------------------6--6--6-|
----------11--11---------------|----------11--11---------------|
--4--4s-9---------4--4---------|--4--4s-9---------4--4---------|


----------------------------------|----------------------------------|
----------11--11-------11--11--11-|----------11--11-------11--11--11-|
--4--4s-9-------------------------|--4--4s-9-------------------------|
------------------9--9------------|------------------9--9------------|


-------------------------------|-------------------------------|
-----------------------6--6--6-|-----------------------6--6--6-|
----------11--11---------------|----------11--11---------------|
--4--4s-9---------4--4---------|--4--4s-9---------4--4---------|


----------------------------------|----------------------------------|
----------11--11-------11--11--11-|----------11--11-------11--11--11-|
--4--4s-9-------------------------|--4--4s-9-------------------------|
------------------9--9------------|------------------9--9------------|


-------------------------------|-------------------------------|
-----------------------6--6--6-|-----------------------6--6--6-|
----------11--11---------------|----------11--11---------------|
--4--4s-9---------4--4---------|--4--4s-9---------4--4---------|

  
----------------------------------|------------------------------------||
----------11--11-------11--11--11-|----------11--11--11--11-11--11--11-||
--4--4s-9-------------------------|--4--4s-9---------------------------||
------------------9--9------------|------------------------------------||
comments
We did not receive enough feedback on this tab! Please rate:
print report bad tab
1 2 3 4 5
I want to post or [tab]
guest
You may want to rate the tab now too:
select rating
Please do not post tabs as comments. Select "correction" instead!