Oops, an error
Loading. Please wait.

Time Will Not Remain Tab

ver2
ver2

Solo

Whole song

Interactive

More versions @911Tabs.com
914 views 9 this week
no commentswrite comment
1 2 3 4 5
please rate
Autoscroll
+/-
esc
set tempo
stop
Contributor
Difficulty
Tuning
advanced
D A D G B E
Hey! There's an official Ultimate Guitar app which is ideal
for learning songs when you're away from computer. Get the app
WARNING: You are trying to view
                                    content from Ultimate-Guitar.com
                                    in an unauthorized application,
                                    which is prohibited.

                                    Please use an official Ultimate
                                    Guitar Tabs application for iPhone,
                                    iPad or Android to access legitimate
                                    chords, guitar, bass, and drum tabs
                                    from Ultimate-Guitar.com database.

                                    Type "ultimate guitar tabs" in Apple
                                    App Store's or Android Market's
                                    search to find the application.
----------------------------------------------------------------------------
                        Time Will Not Remain
                          Killswitch Engage
----------------------------------------------------------------------------

What an incredible instrumentally written song. Never have I seen a song switch 
from 4/4 to 3/4 in 1 song. The solo is very challenge, but if you can get it down, 
then it is a blast to play. Enjoy!

Username: dkm817 (same on X box live)
Youtube Cover: http://www.youtube.com/watch?v=9ciGzMrL3kA
Email: guitardrums@rockfan.com

Guitar 1 Rhythmic (D A D G B E)
Guitar 2 Lead     (D A D G B E)

NOTE: This was exported off of guitar pro.


Guitar 1

         PM   PM   PM                       PM   PM   PM                 
     S S S  S S  S S  S E   E  E  E     S S S  S S  S S  S E   E  E  E   
E||----------------------------------|----------------------------------|
B||----------------------------------|----------------------------------|
G||--5-7---------5----7-L\-----------|--5-7---------5----7-L\-----------|
D||--5-7-0--0-0--5-0--7-L\-----------|--5-7-0--0-0--5-0--7-L\-----------|
A||--3-5-0--0-0--3-0--5-L\-----------|--3-5-0--0-0--3-0--5-L\-----------|
D||------0--0-0----0-----------------|------0--0-0----0-----------------|


      PM   PM   PM   PM PM PM PM PM PM         
  S S S  S S  S S  S T  T  T  T  T  T  S Q     
----------------------------------------------|
----------------------------------------------|
--5-5-5--5-5--5-5--5-------------------5-L----|
--5-5-5--5-5--5-5--5-------------------5-L----|
--3-3-3--3-3--3-3--3-3--3--3--3--3--3--3-L----|
----------------------------------------------|


      PM   PM   PM   PM PM PM PM    PM PM PM PM     
  S S S  S S  S S  S T  T  T  T  E  T  T  T  T  E   
---------------------------------------------------|
---------------------------------------------------|
--2-2-2--2-2--2-2--2-------------3--------------5--|
--2-2-2--2-2--2-2--2-------------3--------------5--|
--0-0-0--0-0--0-0--0-1--1--1--1--1--3--3--3--3--3--|
---------------------------------------------------|


      PM   PM   PM      PM PM PM PM PM PM PM PM PM PM PM PM  
  S S S  S S  S S  S E  T  T  T  T  T  T  T  T  T  T  T  T   
------------------------------------------------------------|
------------------------------------------------------------|
--5-7---------5----5-7--------------------------------------|
--5-7-0--0-0--5-0--5-7--------------------------------------|
--3-5-0--0-0--3-0--3-5--------------------------------------|
------0--0-0----0-------0--0--0--0--0--0--0--0--0--0--0--0--|


      PM   PM   PM      PM PM PM PM PM PM PM PM PM PM PM PM  
  S S S  S S  S S  S E  T  T  T  T  T  T  T  T  T  T  T  T   
------------------------------------------------------------|
------------------------------------------------------------|
--5-7---------5----5-7--------------------------------------|
--5-7-0--0-0--5-0--5-7--------------------------------------|
--3-5-0--0-0--3-0--3-5--------------------------------------|
------0--0-0----0-------0--0--0--0--0--0--0--0--0--0--0--0--|


      PM   PM   PM   PM PM PM PM PM PM PM PM PM PM PM PM PM PM PM PM  
  S S S  S S  S S  S T  T  T  T  T  T  T  T  T  T  T  T  T  T  T  T   
---------------------------------------------------------------------|
---------------------------------------------------------------------|
--3-5-5--5-5--5-5--5-------------------------------------------------|
--3-5-5--5-5--5-5--5-------------------------------------------------|
--1-3-3--3-3--3-3--3-3--3--3--3--3--3--3--3--3--3--3--3--3--3--3--3--|
---------------------------------------------------------------------|


    PM PM PM PM   PM PM   PM PM PM PM   PM PM PM PM PM PM   PM PM PM PM PM PM  
  S T  T  T  T  S T  T  S T  T  T  T  S T  T  T  T  T  T  S T  T  T  T  T  T   
------------------------------------------------------------------------------|
------------------------------------------------------------------------------|
--2-------------2-------2-------------3-------------------5-------------------|
--2-------------2-------2-------------3-------------------5-------------------|
--0-0--0--0--0--0-0--0--0-0--0--0--0--1-1--1--1--1--1--1--3-3--3--3--3--3--3--|
------------------------------------------------------------------------------|


      PM   PM   PM      PM PM PM PM PM PM PM PM PM PM PM PM  
  S S S  S S  S S  S E  T  T  T  T  T  T  T  T  T  T  T  T   
------------------------------------------------------------|
------------------------------------------------------------|
--5-7---------5----5-7--------------------------------------|
--5-7-0--0-0--5-0--5-7--------------------------------------|
--3-5-0--0-0--3-0--3-5--------------------------------------|
------0--0-0----0-------0--0--0--0--0--0--0--0--0--0--0--0--|


      PM   PM   PM      PM PM PM PM PM PM PM PM PM PM PM PM  
  S S S  S S  S S  S E  T  T  T  T  T  T  T  T  T  T  T  T   
------------------------------------------------------------|
------------------------------------------------------------|
--5-7---------5----5-7--------------------------------------|
--5-7-0--0-0--5-0--5-7--------------------------------------|
--3-5-0--0-0--3-0--3-5--------------------------------------|
------0--0-0----0-------0--0--0--0--0--0--0--0--0--0--0--0--|


      PM   PM   PM   PM PM PM PM PM PM PM PM PM PM PM PM PM PM PM PM  
  S S S  S S  S S  S T  T  T  T  T  T  T  T  T  T  T  T  T  T  T  T   
---------------------------------------------------------------------|
---------------------------------------------------------------------|
--3-5-5--5-5--5-5--5-------------------------------------------------|
--3-5-5--5-5--5-5--5-------------------------------------------------|
--1-3-3--3-3--3-3--3-3--3--3--3--3--3--3--3--3--3--3--3--3--3--3--3--|
---------------------------------------------------------------------|


    PM PM PM PM   PM PM   PM PM PM PM   PM PM PM PM PM PM          
  S T  T  T  T  S T  T  S T  T  T  T  S T  T  T  T  T  T    Q      
------------------------------------------------------------------|
------------------------------------------------------------------|
--2-------------2-------2-------------3---------------------------|
--2-------------2-------2-------------3-------------------/12\----|
--0-0--0--0--0--0-0--0--0-0--0--0--0--1-1--1--1--1--1--1--/12\----|
----------------------------------------------------------/12\----|


      PM   PM   PM     PM PM   PM PM   PM  
  S S S  S S  S S  S S S  S  S S  S  S S   
------------------------------------------|
------------------------------------------|
--5-7---------5----5-7--------------------|
--5-7-0--3-0--5-0--5-7--------------------|
--3-5-0--3-0--3-0--3-5-------5-------3----|
------0--3-0----0------0--3----0--3----0--|


      PM   PM   PM                    
  S S S  S S  S S  S S S S S S S S S  
-------------------------------------|
-------------------------------------|
--5-7---------3----------------------|
--5-7-0--3-0--3-0------5-----3-L-3-L-|
--3-5-0--3-0--1-0--1-3---3-0---1-L-0-|
------0--3-0----0--------------------|


      PM   PM   PM     PM PM   PM PM   PM  
  S S S  S S  S S  S S S  S  S S  S  S S   
------------------------------------------|
------------------------------------------|
--5-7---------5----5-7--------------------|
--5-7-0--3-0--5-0--5-7--------------------|
--3-5-0--3-0--3-0--3-5-------5-------3----|
------0--3-0----0------0--3----0--3----0--|


      PM   PM   PM                    
  S S S  S S  S S  S S S S S S S S S  
-------------------------------------|
-------------------------------------|
--5-7---------3----------------------|
--5-7-0--3-0--3-0------5-----3-L-3-L-|
--3-5-0--3-0--1-0--1-3---3-0---1-L-0-|
------0--3-0----0--------------------|


      PM   PM   PM     PM PM   PM PM   PM  
  S S S  S S  S S  S S S  S  S S  S  S S   
------------------------------------------|
------------------------------------------|
--5-7---------5----5-7--------------------|
--5-7-0--3-0--5-0--5-7--------------------|
--3-5-0--3-0--3-0--3-5-------5-------3----|
------0--3-0----0------0--3----0--3----0--|


      PM   PM   PM                    
  S S S  S S  S S  S S S S S S S S S  
-------------------------------------|
-------------------------------------|
--5-7---------3----------------------|
--5-7-0--3-0--3-0------5-----3-L-3-L-|
--3-5-0--3-0--1-0--1-3---3-0---1-L-0-|
------0--3-0----0--------------------|


      PM   PM   PM     PM PM   PM PM   PM  
  S S S  S S  S S  S S S  S  S S  S  S S   
------------------------------------------|
------------------------------------------|
--5-7---------5----5-7--------------------|
--5-7-0--3-0--5-0--5-7--------------------|
--3-5-0--3-0--3-0--3-5-------5-------3----|
------0--3-0----0------0--3----0--3----0--|


      PM   PM   PM                      
  S S S  S S  S S  S S S S S S S   E    
---------------------------------------|
---------------------------------------|
--5-7---------3------------------------|
--5-7-0--3-0--3-0------5-----3-L-/12\--|
--3-5-0--3-0--1-0--1-3---3-0---1-/12\--|
------0--3-0----0----------------/12\--|


  PM PM PM PM PM PM PM PM PM PM PM PM PM PM PM PM PM PM PM PM PM PM  
  T  T  S  S  S  S  S  T  T  S  S  S  S  S  T  T  T  T  T  T  T  T   
--------------------------------------------------------------------|
--------------------------------------------------------------------|
--------------------------------------------------------------------|
--0--0--0--0--0--0--0--0--0--0--0--0--0--0--0--0--0--0--0--0--0--0--|
--0--0--0--0--0--0--0--0--0--0--0--0--0--0--0--0--0--0--0--0--0--0--|
--0--0--0--0--0--0--0--0--0--0--0--0--0--0--0--0--0--0--0--0--0--0--|


  H         Q     
-----------------|
-----------------|
-----------------|
--8--------10----|
--8--------10----|
--8--------10----|


  PM PM PM PM PM PM PM PM PM PM PM PM PM PM PM PM PM PM PM PM PM PM  
  T  T  S  S  S  S  S  T  T  S  S  S  S  S  T  T  T  T  T  T  T  T   
--------------------------------------------------------------------|
--------------------------------------------------------------------|
--------------------------------------------------------------------|
--0--0--0--0--0--0--0--0--0--0--0--0--0--0--0--0--0--0--0--0--0--0--|
--0--0--0--0--0--0--0--0--0--0--0--0--0--0--0--0--0--0--0--0--0--0--|
--0--0--0--0--0--0--0--0--0--0--0--0--0--0--0--0--0--0--0--0--0--0--|


       PM PM      PM PM        
  Q    S  S  Q    S  S   Q     
------------------------------|
------------------------------|
--7---------------------------|
--7----0--0--8----0--0--10----|
--5----0--0--8----0--0--10----|
-------0--0--8----0--0--10----|


  PM PM PM PM PM PM PM PM PM PM PM PM PM PM PM PM PM PM PM PM PM PM  
  T  T  S  S  S  S  S  T  T  S  S  S  S  S  T  T  T  T  T  T  T  T   
--------------------------------------------------------------------|
--------------------------------------------------------------------|
--------------------------------------------------------------------|
--0--0--0--0--0--0--0--0--0--0--0--0--0--0--0--0--0--0--0--0--0--0--|
--0--0--0--0--0--0--0--0--0--0--0--0--0--0--0--0--0--0--0--0--0--0--|
--0--0--0--0--0--0--0--0--0--0--0--0--0--0--0--0--0--0--0--0--0--0--|


  H         Q     
-----------------|
-----------------|
-----------------|
--8--------10----|
--8--------10----|
--8--------10----|


  PM PM PM PM PM PM PM PM PM PM PM PM PM PM PM PM PM PM PM PM PM PM  
  T  T  S  S  S  S  S  T  T  S  S  S  S  S  T  T  T  T  T  T  T  T   
--------------------------------------------------------------------|
--------------------------------------------------------------------|
--------------------------------------------------------------------|
--0--0--0--0--0--0--0--0--0--0--0--0--0--0--0--0--0--0--0--0--0--0--|
--0--0--0--0--0--0--0--0--0--0--0--0--0--0--0--0--0--0--0--0--0--0--|
--0--0--0--0--0--0--0--0--0--0--0--0--0--0--0--0--0--0--0--0--0--0--|


       PM PM      PM PM                                          
  Q    S  S  Q    S  S   Q       H        Q       H        Q     
------------------------------|----------------|----------------|
------------------------------|----------------|----------------|
--7---------------------------|----------------|----------------|
--7----0--0--8----0--0--10----|--0--------L----|--0--------L----|
--5----0--0--8----0--0--10----|--0--------L----|--0--------L----|
-------0--0--8----0--0--10----|--0--------L----|--0--------L----|


   H        Q        H        Q       H        Q       Q    E   Q    E   
-----------------|-----------------|----------------|-------------------|
-----------------|-----------------|----------------|-------------------|
-----------------|-----------------|----------------|-------------------|
--10--------L----|--10--------L----|--7--------L----|--8----L--10----L--|
---7--------L----|---7--------L----|--3--------L----|--8----L--10----L--|
---7--------L----|---7--------L----|--3--------L----|--8----L--10----L--|


  H        Q       H        Q        H        Q        H        Q     
----------------|----------------|-----------------|-----------------|
----------------|----------------|-----------------|-----------------|
----------------|----------------|-----------------|-----------------|
--0--------L----|--0--------L----|--10--------L----|--10--------L----|
--0--------L----|--0--------L----|---7--------L----|---7--------L----|
--0--------L----|--0--------L----|---7--------L----|---7--------L----|


  H        Q       Q    E   Q    E   
----------------|-------------------|
----------------|-------------------|
----------------|-------------------|
--7--------L----|--8----L--10----L--|
--3--------L----|--8----L--10----L--|
--3--------L----|--8----L--10----L--|


  PM PM PM PM PM PM PM PM PM PM PM PM PM PM PM PM PM PM PM PM PM PM  
  T  T  S  S  S  S  S  T  T  S  S  S  S  S  T  T  T  T  T  T  T  T   
--------------------------------------------------------------------|
--------------------------------------------------------------------|
--------------------------------------------------------------------|
--0--0--0--0--0--0--0--0--0--0--0--0--0--0--0--0--0--0--0--0--0--0--|
--0--0--0--0--0--0--0--0--0--0--0--0--0--0--0--0--0--0--0--0--0--0--|
--0--0--0--0--0--0--0--0--0--0--0--0--0--0--0--0--0--0--0--0--0--0--|


  H         Q     
-----------------|
-----------------|
-----------------|
--8--------10----|
--8--------10----|
--8--------10----|


  PM PM PM PM PM PM PM PM PM PM PM PM PM PM PM PM PM PM PM PM PM PM  
  T  T  S  S  S  S  S  T  T  S  S  S  S  S  T  T  T  T  T  T  T  T   
--------------------------------------------------------------------|
--------------------------------------------------------------------|
--------------------------------------------------------------------|
--0--0--0--0--0--0--0--0--0--0--0--0--0--0--0--0--0--0--0--0--0--0--|
--0--0--0--0--0--0--0--0--0--0--0--0--0--0--0--0--0--0--0--0--0--0--|
--0--0--0--0--0--0--0--0--0--0--0--0--0--0--0--0--0--0--0--0--0--0--|


       PM PM      PM PM        
  Q    S  S  Q    S  S   Q     
------------------------------|
------------------------------|
--7---------------------------|
--7----0--0--8----0--0--10----|
--5----0--0--8----0--0--10----|
-------0--0--8----0--0--10----|


  PM PM PM PM PM PM PM PM PM PM PM PM PM PM PM PM PM PM PM PM PM PM  
  T  T  S  S  S  S  S  T  T  S  S  S  S  S  T  T  T  T  T  T  T  T   
--------------------------------------------------------------------|
--------------------------------------------------------------------|
--------------------------------------------------------------------|
--0--0--0--0--0--0--0--0--0--0--0--0--0--0--0--0--0--0--0--0--0--0--|
--0--0--0--0--0--0--0--0--0--0--0--0--0--0--0--0--0--0--0--0--0--0--|
--0--0--0--0--0--0--0--0--0--0--0--0--0--0--0--0--0--0--0--0--0--0--|


  H         Q     
-----------------|
-----------------|
-----------------|
--8--------10----|
--8--------10----|
--8--------10----|


  PM PM PM PM PM PM PM PM PM PM PM PM PM PM PM PM PM PM PM PM PM PM  
  T  T  S  S  S  S  S  T  T  S  S  S  S  S  T  T  T  T  T  T  T  T   
--------------------------------------------------------------------|
--------------------------------------------------------------------|
--------------------------------------------------------------------|
--0--0--0--0--0--0--0--0--0--0--0--0--0--0--0--0--0--0--0--0--0--0--|
--0--0--0--0--0--0--0--0--0--0--0--0--0--0--0--0--0--0--0--0--0--0--|
--0--0--0--0--0--0--0--0--0--0--0--0--0--0--0--0--0--0--0--0--0--0--|


       PM PM      PM PM                                          
  Q    S  S  Q    S  S   Q       H        Q       H        Q     
------------------------------|----------------|----------------|
------------------------------|----------------|----------------|
--7---------------------------|----------------|----------------|
--7----0--0--8----0--0--10----|--0--------L----|--0--------L----|
--5----0--0--8----0--0--10----|--0--------L----|--0--------L----|
-------0--0--8----0--0--10----|--0--------L----|--0--------L----|


   H        Q        H        Q       H        Q       Q    E   Q    E   
-----------------|-----------------|----------------|-------------------|
-----------------|-----------------|----------------|-------------------|
-----------------|-----------------|----------------|-------------------|
--10--------L----|--10--------L----|--7--------L----|--8----L--10----L--|
---7--------L----|---7--------L----|--3--------L----|--8----L--10----L--|
---7--------L----|---7--------L----|--3--------L----|--8----L--10----L--|


  H        Q       H        Q        H        Q        H        Q     
----------------|----------------|-----------------|-----------------|
----------------|----------------|-----------------|-----------------|
----------------|----------------|-----------------|-----------------|
--0--------L----|--0--------L----|--10--------L----|--10--------L----|
--0--------L----|--0--------L----|---7--------L----|---7--------L----|
--0--------L----|--0--------L----|---7--------L----|---7--------L----|


                                       PM PM                       
  H        Q       Q    E   Q    E     S  S  E  E  E  E  E  E  E   
----------------|-------------------|-----------------------------|
----------------|-------------------|-----------------------------|
----------------|-------------------|-----------------------------|
--7--------L----|--8----L--10----L--|--0--0-----------------------|
--3--------L----|--8----L--10----L--|--0--0-----------------------|
--3--------L----|--8----L--10----L--|--0--0-----------------------|


                              PM PM                       
   Q    E  E  S E  S E  E     S  S  E  E  E  E  E  E  E   
---------------------------|-----------------------------|
---------------------------|-----------------------------|
---------------------------|-----------------------------|
--10----L--8--L-3--L-L--L--|--0--0-----------------------|
--10----L--8--L-0--L-------|--0--0-----------------------|
--10----L--8--L----L-3--0--|--0--0-----------------------|


                              PM PM                       
   Q    E  E  S E  S E  E     S  S  E  E  E  E  E  E  E   
---------------------------|-----------------------------|
---------------------------|-----------------------------|
---------------------------|-----------------------------|
--10----L--8--L-3--L-L--L--|--0--0-----------------------|
--10----L--8--L-0--L-------|--0--0-----------------------|
--10----L--8--L----L-3--0--|--0--0-----------------------|


                              PM PM                       
   Q    E  E  S E  S E  E     S  S  E  E  E  E  E  E  E   
---------------------------|-----------------------------|
---------------------------|-----------------------------|
---------------------------|-----------------------------|
--10----L--8--L-3--L-L--L--|--0--0-----------------------|
--10----L--8--L-0--L-------|--0--0-----------------------|
--10----L--8--L----L-3--0--|--0--0-----------------------|


                                  PM   PM   PM      PM PM PM PM PM PM PM  
   Q    E  E  S E  S E  E     S S S  S S  S S  S E  S  S  T  T  S  S  S   
---------------------------|---------------------------------------------|
---------------------------|---------------------------------------------|
---------------------------|--5-7---------5----5-7-----------------------|
--10----L--8--L-3--L-L--L--|--5-7-0--0-0--5-0--5-7--0--0--0--0--0--0--0--|
--10----L--8--L-0--L-------|--3-5-0--0-0--3-0--3-5--0--0--0--0--0--0--0--|
--10----L--8--L----L-3--0--|------0--0-0----0-------0--0--0--0--0--0--0--|


                                  PM   PM   PM      PM PM PM PM PM PM PM  
   Q    E  E  S E  S E  E     S S S  S S  S S  S E  S  S  T  T  S  S  S   
---------------------------|---------------------------------------------|
---------------------------|---------------------------------------------|
---------------------------|--5-7---------5----5-7-----------------------|
--10----L--8--L-3--L-L--L--|--5-7-0--0-0--5-0--5-7--0--0--0--0--0--0--0--|
--10----L--8--L-0--L-------|--3-5-0--0-0--3-0--3-5--0--0--0--0--0--0--0--|
--10----L--8--L----L-3--0--|------0--0-0----0-------0--0--0--0--0--0--0--|


                                  PM   PM   PM      PM PM PM PM PM PM PM  
   Q    E  E  S E  S E  E     S S S  S S  S S  S E  S  S  T  T  S  S  S   
---------------------------|---------------------------------------------|
---------------------------|---------------------------------------------|
---------------------------|--5-7---------5----5-7-----------------------|
--10----L--8--L-3--L-L--L--|--5-7-0--0-0--5-0--5-7--0--0--0--0--0--0--0--|
--10----L--8--L-0--L-------|--3-5-0--0-0--3-0--3-5--0--0--0--0--0--0--0--|
--10----L--8--L----L-3--0--|------0--0-0----0-------0--0--0--0--0--0--0--|


                                  PM   PM   PM      PM PM PM PM PM PM PM  
   Q    E  E  S E  S E  E     S S S  S S  S S  S E  S  S  T  T  S  S  S   
---------------------------|---------------------------------------------|
---------------------------|---------------------------------------------|
---------------------------|--5-7---------5----5-7-----------------------|
--10----L--8--L-3--L-L--L--|--5-7-0--0-0--5-0--5-7--0--0--0--0--0--0--0--|
--10----L--8--L-0--L-------|--3-5-0--0-0--3-0--3-5--0--0--0--0--0--0--0--|
--10----L--8--L----L-3--0--|------0--0-0----0-------0--0--0--0--0--0--0--|


   Q    E  E  S E  S E  E     H        Q       H        Q        H        Q     
---------------------------|----------------|----------------|-----------------|
---------------------------|----------------|----------------|-----------------|
---------------------------|----------------|----------------|-----------------|
--10----L--8--L-3--L-L--L--|--0--------L----|--0--------L----|--10--------L----|
--10----L--8--L-0--L-------|--0--------L----|--0--------L----|---7--------L----|
--10----L--8--L----L-3--0--|--0--------L----|--0--------L----|---7--------L----|


   H        Q       H        Q       Q    E   Q    E     H        Q     
-----------------|----------------|-------------------|----------------|
-----------------|----------------|-------------------|----------------|
-----------------|----------------|-------------------|----------------|
--10--------L----|--7--------L----|--8----L--10----L--|--0--------L----|
---7--------L----|--3--------L----|--8----L--10----L--|--0--------L----|
---7--------L----|--3--------L----|--8----L--10----L--|--0--------L----|


  H        Q        H        Q        H        Q       H        Q     
----------------|-----------------|-----------------|----------------|
----------------|-----------------|-----------------|----------------|
----------------|-----------------|-----------------|----------------|
--0--------L----|--10--------L----|--10--------L----|--7--------L----|
--0--------L----|---7--------L----|---7--------L----|--3--------L----|
--0--------L----|---7--------L----|---7--------L----|--3--------L----|


                                               PM PM                            
  Q    E   Q    E     H        Q       Q    E  E  E   E     E   E  E  E  E  E   
-------------------|----------------|--------------------|---------------------|
-------------------|----------------|--------------------|---------------------|
-------------------|--7--------L----|--L----L------------|---------------------|
--8----L--10----L--|--7--------L----|--L----L--0--0------|---------------------|
--8----L--10----L--|--5--------L----|--L----L--0--0------|---------------------|
--8----L--10----L--|----------------|----------0--0--12--|--L\-----------------|


-------||
-------||
-------||
-------||
-------||
-------||


Guitar 2

          PM   PM   PM    PM   PM   PM      PM  
      S S S  S S  S S   S S  S S  S S   S S S   
E||--------------------------------------------|
B||---------------8----10---------8------------|
G||--10-9----7---------------7---------10-9----|
D||-------7----7----7-----7----7----7-------7--|
A||--------------------------------------------|
D||--------------------------------------------|


       PM   PM   PM    PM   PM   PM      PM  
   S S S  S S  S S   S S  S S  S S   S S S   
--------------------------------------------|
---------------8----10---------8------------|
--10-9----7---------------7---------10-9----|
-------7----7----7-----7----7----7-------7--|
--------------------------------------------|
--------------------------------------------|


         PM    PM    PM    PM    PM    PM          
   S  S  S  S  S  S  S  S  S  S  S  S  S  S  S  S  
--------------------------------------------------|
-----------------------10-------------------------|
--10-12----10----12----------10----12----12-10----|
--------10----10----10----10----10----10-------14-|
--------------------------------------------------|
--------------------------------------------------|


         PM    PM    PM    PM    PM    PM          
   S  S  S  S  S  S  S  S  S  S  S  S  S  S  S  S  
--------------------------------------------------|
-----------------------10-------------------------|
--10-12----10----12----------10----12----12-10----|
--------10----10----10----10----10----10-------14-|
--------------------------------------------------|
--------------------------------------------------|


       PM   PM   PM    PM   PM   PM      PM  
   S S S  S S  S S   S S  S S  S S   S S S   
--------------------------------------------|
---------------8----10---------8------------|
--10-9----7---------------7---------10-9----|
-------7----7----7-----7----7----7-------7--|
--------------------------------------------|
--------------------------------------------|


       PM   PM   PM    PM   PM   PM      PM  
   S S S  S S  S S   S S  S S  S S   S S S   
--------------------------------------------|
---------------8----10---------8------------|
--10-9----7---------------7---------10-9----|
-------7----7----7-----7----7----7-------7--|
--------------------------------------------|
--------------------------------------------|


         PM    PM    PM    PM    PM    PM          
   S  S  S  S  S  S  S  S  S  S  S  S  S  S  S  S  
--------------------------------------------------|
-----------------------10-------------------------|
--10-12----10----12----------10----12----12-10----|
--------10----10----10----10----10----10-------14-|
--------------------------------------------------|
--------------------------------------------------|


         PM    PM    PM    PM    PM    PM          
   S  S  S  S  S  S  S  S  S  S  S  S  S  S  S  S  
--------------------------------------------------|
-----------------------10-------------------------|
--10-12----10----12----------10----12----12-10----|
--------10----10----10----10----10----10-------14-|
--------------------------------------------------|
--------------------------------------------------|


       PM   PM   PM    PM   PM   PM      PM  
   S S S  S S  S S   S S  S S  S S   S S S   
--------------------------------------------|
---------------8----10---------8------------|
--10-9----7---------------7---------10-9----|
-------7----7----7-----7----7----7-------7--|
--------------------------------------------|
--------------------------------------------|


       PM   PM   PM    PM   PM   PM      PM  
   S S S  S S  S S   S S  S S  S S   S S S   
--------------------------------------------|
---------------8----10---------8------------|
--10-9----7---------------7---------10-9----|
-------7----7----7-----7----7----7-------7--|
--------------------------------------------|
--------------------------------------------|


         PM    PM    PM    PM    PM    PM          
   S  S  S  S  S  S  S  S  S  S  S  S  S  S  S  S  
--------------------------------------------------|
-----------------------10-------------------------|
--10-12----10----12----------10----12----12-10----|
--------10----10----10----10----10----10-------14-|
--------------------------------------------------|
--------------------------------------------------|


         PM    PM    PM    PM    PM    PM          
   S  S  S  S  S  S  S  S  S  S  S  S  S  S  S  S  
--------------------------------------------------|
-----------------------10-------------------------|
--10-12----10----12----------10----12----12-10----|
--------10----10----10----10----10----10-------14-|
--------------------------------------------------|
--------------------------------------------------|


      PM   PM   PM     PM PM   PM PM   PM  
  S S S  S S  S S  S S S  S  S S  S  S S   
------------------------------------------|
------------------------------------------|
--5-7---------5----5-7--------------------|
--5-7-0--3-0--5-0--5-7--------------------|
--3-5-0--3-0--3-0--3-5-------5-------3----|
------0--3-0----0------0--3----0--3----0--|


      PM   PM   PM                    
  S S S  S S  S S  S S S S S S S S S  
-------------------------------------|
-------------------------------------|
--5-7---------3----------------------|
--5-7-0--3-0--3-0------5-----3-L-3-L-|
--3-5-0--3-0--1-0--1-3---3-0---1-L-0-|
------0--3-0----0--------------------|


      PM   PM   PM     PM PM   PM PM   PM  
  S S S  S S  S S  S S S  S  S S  S  S S   
------------------------------------------|
------------------------------------------|
--5-7---------5----5-7--------------------|
--5-7-0--3-0--5-0--5-7--------------------|
--3-5-0--3-0--3-0--3-5-------5-------3----|
------0--3-0----0------0--3----0--3----0--|


      PM   PM   PM                    
  S S S  S S  S S  S S S S S S S S S  
-------------------------------------|
-------------------------------------|
--5-7---------3----------------------|
--5-7-0--3-0--3-0------5-----3-L-3-L-|
--3-5-0--3-0--1-0--1-3---3-0---1-L-0-|
------0--3-0----0--------------------|


      PM   PM   PM     PM PM   PM PM   PM  
  S S S  S S  S S  S S S  S  S S  S  S S   
------------------------------------------|
------------------------------------------|
--5-7---------5----5-7--------------------|
--5-7-0--3-0--5-0--5-7--------------------|
--3-5-0--3-0--3-0--3-5-------5-------3----|
------0--3-0----0------0--3----0--3----0--|


      PM   PM   PM                    
  S S S  S S  S S  S S S S S S S S S  
-------------------------------------|
-------------------------------------|
--5-7---------3----------------------|
--5-7-0--3-0--3-0------5-----3-L-3-L-|
--3-5-0--3-0--1-0--1-3---3-0---1-L-0-|
------0--3-0----0--------------------|


      PM   PM   PM     PM PM   PM PM   PM  
  S S S  S S  S S  S S S  S  S S  S  S S   
------------------------------------------|
------------------------------------------|
--5-7---------5----5-7--------------------|
--5-7-0--3-0--5-0--5-7--------------------|
--3-5-0--3-0--3-0--3-5-------5-------3----|
------0--3-0----0------0--3----0--3----0--|


      PM   PM   PM                    
  S S S  S S  S S  S S S S S S S S S  
-------------------------------------|
-------------------------------------|
--5-7---------3----------------------|
--5-7-0--3-0--3-0------5-----3-L-3-L-|
--3-5-0--3-0--1-0--1-3---3-0---1-L-0-|
------0--3-0----0--------------------|


  PM PM PM PM PM PM PM PM PM PM PM PM PM PM PM PM PM PM PM PM PM PM  
  T  T  S  S  S  S  S  T  T  S  S  S  S  S  T  T  T  T  T  T  T  T   
--------------------------------------------------------------------|
--------------------------------------------------------------------|
--------------------------------------------------------------------|
--0--0--0--0--0--0--0--0--0--0--0--0--0--0--0--0--0--0--0--0--0--0--|
--0--0--0--0--0--0--0--0--0--0--0--0--0--0--0--0--0--0--0--0--0--0--|
--0--0--0--0--0--0--0--0--0--0--0--0--0--0--0--0--0--0--0--0--0--0--|


    PM PM   PM PM   PM PM PM      
  S S  S  S S  S  S S  S  S  S S  
---------------------------------|
---------------------------------|
---------------------------------|
--0-0--0--7-0--0--5-0--0--0--5-7-|
---------------------------------|
---------------------------------|


  PM PM PM PM PM PM PM PM PM PM PM PM PM PM PM PM PM PM PM PM PM PM  
  T  T  S  S  S  S  S  T  T  S  S  S  S  S  T  T  T  T  T  T  T  T   
--------------------------------------------------------------------|
--------------------------------------------------------------------|
--------------------------------------------------------------------|
--0--0--0--0--0--0--0--0--0--0--0--0--0--0--0--0--0--0--0--0--0--0--|
--0--0--0--0--0--0--0--0--0--0--0--0--0--0--0--0--0--0--0--0--0--0--|
--0--0--0--0--0--0--0--0--0--0--0--0--0--0--0--0--0--0--0--0--0--0--|


   Q    E  Q    E  Q     
------------------------|
------------------------|
--10----L--7----L--9----|
---x-------x-------x----|
---8----L--5----L--7----|
------------------------|


  PM PM PM PM PM PM PM PM PM PM PM PM PM PM PM PM PM PM PM PM PM PM  
  T  T  S  S  S  S  S  T  T  S  S  S  S  S  T  T  T  T  T  T  T  T   
--------------------------------------------------------------------|
--------------------------------------------------------------------|
--------------------------------------------------------------------|
--0--0--0--0--0--0--0--0--0--0--0--0--0--0--0--0--0--0--0--0--0--0--|
--0--0--0--0--0--0--0--0--0--0--0--0--0--0--0--0--0--0--0--0--0--0--|
--0--0--0--0--0--0--0--0--0--0--0--0--0--0--0--0--0--0--0--0--0--0--|


    PM PM   PM PM   PM PM PM      
  S S  S  S S  S  S S  S  S  S S  
---------------------------------|
---------------------------------|
---------------------------------|
--0-0--0--7-0--0--5-0--0--0--5-7-|
---------------------------------|
---------------------------------|


  PM PM PM PM PM PM PM PM PM PM PM PM PM PM PM PM PM PM PM PM PM PM  
  T  T  S  S  S  S  S  T  T  S  S  S  S  S  T  T  T  T  T  T  T  T   
--------------------------------------------------------------------|
--------------------------------------------------------------------|
--------------------------------------------------------------------|
--0--0--0--0--0--0--0--0--0--0--0--0--0--0--0--0--0--0--0--0--0--0--|
--0--0--0--0--0--0--0--0--0--0--0--0--0--0--0--0--0--0--0--0--0--0--|
--0--0--0--0--0--0--0--0--0--0--0--0--0--0--0--0--0--0--0--0--0--0--|


                                PM   PM PM   PM    PM   PM  
   Q    E  Q    E  Q        S S S  S S  S  S S   S S  S S   
------------------------|----------------------------------|
------------------------|------------------8----10---------|
--10----L--7----L--9----|--10-9----7------------------7----|
---x-------x-------x----|-------7----7--7----7-----7----7--|
---8----L--5----L--7----|----------------------------------|
------------------------|----------------------------------|


       PM   PM PM   PM    PM   PM           PM    PM PM    PM    PM    PM 
   S S S  S S  S  S S   S S  S S      S  S  S  S  S  S  S  S  S  S  S  S  
----------------------------------|--------------------------------------|
------------------8----10---------|--------------------------10----------|
--10-9----7------------------7----|--10-12----10-------12----------10----|
-------7----7--7----7-----7----7--|--------10----10-10----10----10----10-|
----------------------------------|--------------------------------------|
----------------------------------|--------------------------------------|


         PM    PM PM    PM    PM    PM       PM PM    PM PM    PM    PM    PM 
   S  S  S  S  S  S  S  S  S  S  S  S     S  S  S  S  S  S  S  S  S  S  S  S  
--------------------------------------|--------------------------------------|
--------------------------10----------|--------------------------10----------|
--10-12----10-------12----------10----|--12-------10-------12----------10----|
--------10----10-10----10----10----10-|-----10-10----10-10----10----10----10-|
--------------------------------------|--------------------------------------|
--------------------------------------|--------------------------------------|


      PM PM    PM PM    PM    PM    PM        PM   PM PM   PM    PM   PM  
   S  S  S  S  S  S  S  S  S  S  S  S     S S S  S S  S  S S   S S  S S   
--------------------------------------|----------------------------------|
--------------------------10----------|------------------8----10---------|
--12-------10-------12----------10----|--10-9----7------------------7----|
-----10-10----10-10----10----10----10-|-------7----7--7----7-----7----7--|
--------------------------------------|----------------------------------|
--------------------------------------|----------------------------------|


       PM   PM PM   PM    PM   PM           PM    PM PM    PM    PM    PM 
   S S S  S S  S  S S   S S  S S      S  S  S  S  S  S  S  S  S  S  S  S  
----------------------------------|--------------------------------------|
------------------8----10---------|--------------------------10----------|
--10-9----7------------------7----|--10-12----10-------12----------10----|
-------7----7--7----7-----7----7--|--------10----10-10----10----10----10-|
----------------------------------|--------------------------------------|
----------------------------------|--------------------------------------|


         PM    PM PM    PM    PM    PM       PM PM    PM PM    PM    PM    PM 
   S  S  S  S  S  S  S  S  S  S  S  S     S  S  S  S  S  S  S  S  S  S  S  S  
--------------------------------------|--------------------------------------|
--------------------------10----------|--------------------------10----------|
--10-12----10-------12----------10----|--12-------10-------12----------10----|
--------10----10-10----10----10----10-|-----10-10----10-10----10----10----10-|
--------------------------------------|--------------------------------------|
--------------------------------------|--------------------------------------|


      PM PM    PM PM    PM    PM    PM 
   S  S  S  S  S  S  S  S  S  S  S  S  
--------------------------------------|
--------------------------10----------|
--12-------10-------12----------10----|
-----10-10----10-10----10----10----10-|
--------------------------------------|
--------------------------------------|


  PM PM PM PM PM PM PM PM PM PM PM PM PM PM PM PM PM PM PM PM PM PM  
  T  T  S  S  S  S  S  T  T  S  S  S  S  S  T  T  T  T  T  T  T  T   
--------------------------------------------------------------------|
--------------------------------------------------------------------|
--------------------------------------------------------------------|
--0--0--0--0--0--0--0--0--0--0--0--0--0--0--0--0--0--0--0--0--0--0--|
--0--0--0--0--0--0--0--0--0--0--0--0--0--0--0--0--0--0--0--0--0--0--|
--0--0--0--0--0--0--0--0--0--0--0--0--0--0--0--0--0--0--0--0--0--0--|


    PM PM   PM PM   PM PM PM      
  S S  S  S S  S  S S  S  S  S S  
---------------------------------|
---------------------------------|
---------------------------------|
--0-0--0--7-0--0--5-0--0--0--5-7-|
---------------------------------|
---------------------------------|


  PM PM PM PM PM PM PM PM PM PM PM PM PM PM PM PM PM PM PM PM PM PM  
  T  T  S  S  S  S  S  T  T  S  S  S  S  S  T  T  T  T  T  T  T  T   
--------------------------------------------------------------------|
--------------------------------------------------------------------|
--------------------------------------------------------------------|
--0--0--0--0--0--0--0--0--0--0--0--0--0--0--0--0--0--0--0--0--0--0--|
--0--0--0--0--0--0--0--0--0--0--0--0--0--0--0--0--0--0--0--0--0--0--|
--0--0--0--0--0--0--0--0--0--0--0--0--0--0--0--0--0--0--0--0--0--0--|


   Q    E  Q    E  Q     
------------------------|
------------------------|
--10----L--7----L--9----|
---x-------x-------x----|
---8----L--5----L--7----|
------------------------|


  PM PM PM PM PM PM PM PM PM PM PM PM PM PM PM PM PM PM PM PM PM PM  
  T  T  S  S  S  S  S  T  T  S  S  S  S  S  T  T  T  T  T  T  T  T   
--------------------------------------------------------------------|
--------------------------------------------------------------------|
--------------------------------------------------------------------|
--0--0--0--0--0--0--0--0--0--0--0--0--0--0--0--0--0--0--0--0--0--0--|
--0--0--0--0--0--0--0--0--0--0--0--0--0--0--0--0--0--0--0--0--0--0--|
--0--0--0--0--0--0--0--0--0--0--0--0--0--0--0--0--0--0--0--0--0--0--|


    PM PM   PM PM   PM PM PM      
  S S  S  S S  S  S S  S  S  S S  
---------------------------------|
---------------------------------|
---------------------------------|
--0-0--0--7-0--0--5-0--0--0--5-7-|
---------------------------------|
---------------------------------|


  PM PM PM PM PM PM PM PM PM PM PM PM PM PM PM PM PM PM PM PM PM PM  
  T  T  S  S  S  S  S  T  T  S  S  S  S  S  T  T  T  T  T  T  T  T   
--------------------------------------------------------------------|
--------------------------------------------------------------------|
--------------------------------------------------------------------|
--0--0--0--0--0--0--0--0--0--0--0--0--0--0--0--0--0--0--0--0--0--0--|
--0--0--0--0--0--0--0--0--0--0--0--0--0--0--0--0--0--0--0--0--0--0--|
--0--0--0--0--0--0--0--0--0--0--0--0--0--0--0--0--0--0--0--0--0--0--|


                                PM   PM PM   PM    PM   PM  
   Q    E  Q    E  Q        S S S  S S  S  S S   S S  S S   
------------------------|----------------------------------|
------------------------|------------------8----10---------|
--10----L--7----L--9----|--10-9----7------------------7----|
---x-------x-------x----|-------7----7--7----7-----7----7--|
---8----L--5----L--7----|----------------------------------|
------------------------|----------------------------------|


       PM   PM PM   PM    PM   PM           PM    PM PM    PM    PM    PM 
   S S S  S S  S  S S   S S  S S      S  S  S  S  S  S  S  S  S  S  S  S  
----------------------------------|--------------------------------------|
------------------8----10---------|--------------------------10----------|
--10-9----7------------------7----|--10-12----10-------12----------10----|
-------7----7--7----7-----7----7--|--------10----10-10----10----10----10-|
----------------------------------|--------------------------------------|
----------------------------------|--------------------------------------|


         PM    PM PM    PM    PM    PM       PM PM    PM PM    PM    PM    PM 
   S  S  S  S  S  S  S  S  S  S  S  S     S  S  S  S  S  S  S  S  S  S  S  S  
--------------------------------------|--------------------------------------|
--------------------------10----------|--------------------------10----------|
--10-12----10-------12----------10----|--12-------10-------12----------10----|
--------10----10-10----10----10----10-|-----10-10----10-10----10----10----10-|
--------------------------------------|--------------------------------------|
--------------------------------------|--------------------------------------|


      PM PM    PM PM    PM    PM    PM        PM   PM PM   PM    PM   PM  
   S  S  S  S  S  S  S  S  S  S  S  S     S S S  S S  S  S S   S S  S S   
--------------------------------------|----------------------------------|
--------------------------10----------|------------------8----10---------|
--12-------10-------12----------10----|--10-9----7------------------7----|
-----10-10----10-10----10----10----10-|-------7----7--7----7-----7----7--|
--------------------------------------|----------------------------------|
--------------------------------------|----------------------------------|


       PM   PM PM   PM    PM   PM           PM    PM PM    PM    PM    PM 
   S S S  S S  S  S S   S S  S S      S  S  S  S  S  S  S  S  S  S  S  S  
----------------------------------|--------------------------------------|
------------------8----10---------|--------------------------10----------|
--10-9----7------------------7----|--10-12----10-------12----------10----|
-------7----7--7----7-----7----7--|--------10----10-10----10----10----10-|
----------------------------------|--------------------------------------|
----------------------------------|--------------------------------------|


         PM    PM PM    PM    PM    PM       PM PM    PM PM    PM    PM    PM 
   S  S  S  S  S  S  S  S  S  S  S  S     S  S  S  S  S  S  S  S  S  S  S  S  
--------------------------------------|--------------------------------------|
--------------------------10----------|--------------------------10----------|
--10-12----10-------12----------10----|--12-------10-------12----------10----|
--------10----10-10----10----10----10-|-----10-10----10-10----10----10----10-|
--------------------------------------|--------------------------------------|
--------------------------------------|--------------------------------------|


      PM PM    PM PM    PM    PM    PM 
   S  S  S  S  S  S  S  S  S  S  S  S  
--------------------------------------|
--------------------------10----------|
--12-------10-------12----------10----|
-----10-10----10-10----10----10----10-|
--------------------------------------|
--------------------------------------|


        PM   PM PM   PM PM PM PM  PM  PM    
  S S S S  S S  S  S S  S  S  S   S S S  S  
-------------------------------------------|
----6-L------------------------------------|
--9-L-9----7-------7-----------------------|
--------8----8--7----7-----7--------8----7-|
------------------------8-----8--10---8----|
-------------------------------------------|


  PM PM PM PM PM PM PM PM PM PM PM PM PM PM     
  S  S  S  S  S  S  S  S  S  S  S  S  S  S  E   
-----------------------------------------------|
-----------------------------------------------|
-----------------------------------------------|
--0--3--0-----2--------3--------3--------3-----|
-----------3-----3--1-----1--0-----0-----------|
--------------------------------------3-----0--|


        PM   PM PM     PM PM PM  PM  PM    
  S S S S  S S  S  S S S  S  S   S S S  S  
------------------------------------------|
----6-L-----------------------------------|
--9-L-9----7-------7----------------------|
--------8----8--7----7----7--------8----7-|
-----------------------8-----8--10---8----|
------------------------------------------|


  PM PM PM PM PM PM PM PM PM PM PM PM PM PM     
  S  S  S  S  S  S  S  S  S  S  S  S  S  S  E   
-----------------------------------------------|
-----------------------------------------------|
-----------------------------------------------|
--0--3--0-----2--------3--------3--------3-----|
-----------3-----3--1-----1--0-----0-----------|
--------------------------------------3-----0--|


        PM   PM PM   PM PM PM PM  PM  PM    
  S S S S  S S  S  S S  S  S  S   S S S  S  
-------------------------------------------|
----6-L------------------------------------|
--9-L-9----7-------7-----------------------|
--------8----8--7----7-----7--------8----7-|
------------------------8-----8--10---8----|
-------------------------------------------|


  PM PM PM PM PM PM PM PM PM PM PM PM PM PM     
  S  S  S  S  S  S  S  S  S  S  S  S  S  S  E   
-----------------------------------------------|
-----------------------------------------------|
-----------------------------------------------|
--0--3--0-----2--------3--------3--------3-----|
-----------3-----3--1-----1--0-----0-----------|
--------------------------------------3-----0--|


        PM   PM PM   PM PM PM PM  PM  PM    
  S S S S  S S  S  S S  S  S  S   S S S  S  
-------------------------------------------|
----6-L------------------------------------|
--9-L-9----7-------7-----------------------|
--------8----8--7----7-----7--------8----7-|
------------------------8-----8--10---8----|
-------------------------------------------|


  PM PM PM PM PM PM PM PM PM PM PM PM          
  S  S  S  S  S  S  S  S  S  S  S  S    Q      
----------------------------------------------|
----------------------------------------------|
----------------------------------------------|
--0--3--0-----2--------3--------3-----/12\----|
-----------3-----3--1-----1--0-----0--/12\----|
--------------------------------------/12\----|


  S S S S S S S S S S S S S S E      S  E   S  S  S  S  S  Q     Q      
---------------------------------|------------10----10-----------------|
---------------------------------|---------10----10----13-15----13-----|
------------------------5--------|------------------------------12b----|
------7-----5-----7-0-2---0-3-3--|--10-12------------------------------|
--3-5---3-5---3-5----------------|-------------------------------------|
---------------------------------|-------------------------------------|


                   |--3--|                         
   E    S  E    S  S  S  S  S  S S  S  S  S  S  S  
-----------------------------------------10----12-|
---L---13--L---13---------------------10----10----|
--12b---L-12b---L-14-12-10-12-10-9-10-------------|
--------------------------------------------------|
--------------------------------------------------|
--------------------------------------------------|


   S  S  S  S  Q     H         
-----13----13-15----13--------|
--10----10--------------------|
------------------------------|
------------------------------|
------------------------------|
------------------------------|


    T  T  T  T  T  T  T  T  T  T  T  T  T  T  T  T  T  T  T  T  T  T  T  T  T  T
--/12-10-------13-10-13-10-------13-10-13-10-------15-10-------13-10-------12-10
---------13-10-------------13-10-------------13-10-------13-10-------13-10------
--------------------------------------------------------------------------------
--------------------------------------------------------------------------------
--------------------------------------------------------------------------------
--------------------------------------------------------------------------------


   T  T  T  T  T  T  T  T  S   S  S  S  S   S S  S  E  E    
-----------------------------------------------------------|
--13-10----------------------------------------------------|
--------12-10-12-10-------12-/12-10------------------------|
--------------------12-10-----------12-10------------------|
------------------------------------------/10-8------------|
------------------------------------------------10-12--L\--|


   |--3--|  |--3--|  |--3--|  |--3--|  |--3--|  |--3--|  |--3--|  |--3--|  
   S  S  S  S  S  S  S  S  S  S  S  S  S  S  S  S  S  S  S  S  S  S  S  S  
-----------------------------------------------------------------15-17-18-|
-----------------------------------------------15-17-18-15-17-18----------|
-----------------------------14-16-17-14-16-17----------------------------|
-----------14-15-17-14-15-17----------------------------------------------|
--13-15-17----------------------------------------------------------------|
--------------------------------------------------------------------------|


   E  S  S  S  S  E   Q     Q         H        Q       H        Q     
--20--L-20-18----17b--L----17b----|--17--------L----|--L--------L----|
--------------15------------------|-----------------|----------------|
----------------------------------|-----------------|----------------|
----------------------------------|-----------------|----------------|
----------------------------------|-----------------|----------------|
----------------------------------|-----------------|----------------|


         PM    PM PM    PM    PM    PM          PM    PM PM    PM    PM    PM 
   S  S  S  S  S  S  S  S  S  S  S  S     S  S  S  S  S  S  S  S  S  S  S  S  
--------------------------------------|--------------------------------------|
--------------------------10----------|--------------------------10----------|
--10-12----10-------12----------10----|--10-12----10-------12----------10----|
--------10----10-10----10----10----10-|--------10----10-10----10----10----10-|
--------------------------------------|--------------------------------------|
--------------------------------------|--------------------------------------|


      PM PM    PM PM    PM    PM    PM       PM PM    PM PM    PM    PM    PM 
   S  S  S  S  S  S  S  S  S  S  S  S     S  S  S  S  S  S  S  S  S  S  S  S  
--------------------------------------|--------------------------------------|
--------------------------10----------|--------------------------10----------|
--12-------10-------12----------10----|--12-------10-------12----------10----|
-----10-10----10-10----10----10----10-|-----10-10----10-10----10----10----10-|
--------------------------------------|--------------------------------------|
--------------------------------------|--------------------------------------|


       PM   PM PM   PM    PM   PM         PM   PM PM   PM    PM   PM  
   S S S  S S  S  S S   S S  S S      S S S  S S  S  S S   S S  S S   
----------------------------------|----------------------------------|
------------------8----10---------|------------------8----10---------|
--10-9----7------------------7----|--10-9----7------------------7----|
-------7----7--7----7-----7----7--|-------7----7--7----7-----7----7--|
----------------------------------|----------------------------------|
----------------------------------|----------------------------------|


         PM    PM PM    PM    PM    PM          PM    PM PM    PM    PM    PM 
   S  S  S  S  S  S  S  S  S  S  S  S     S  S  S  S  S  S  S  S  S  S  S  S  
--------------------------------------|--------------------------------------|
--------------------------10----------|--------------------------10----------|
--10-12----10-------12----------10----|--10-12----10-------12----------10----|
--------10----10-10----10----10----10-|--------10----10-10----10----10----10-|
--------------------------------------|--------------------------------------|
--------------------------------------|--------------------------------------|


      PM PM    PM PM    PM    PM    PM       PM PM    PM PM    PM    PM    PM 
   S  S  S  S  S  S  S  S  S  S  S  S     S  S  S  S  S  S  S  S  S  S  S  S  
--------------------------------------|--------------------------------------|
--------------------------10----------|--------------------------10----------|
--12-------10-------12----------10----|--12-------10-------12----------10----|
-----10-10----10-10----10----10----10-|-----10-10----10-10----10----10----10-|
--------------------------------------|--------------------------------------|
--------------------------------------|--------------------------------------|


       PM   PM PM   PM    PM   PM         PM   PM PM   PM    PM     
   S S S  S S  S  S S   S S  S S      S S S  S S  S  S S   S S  E   
----------------------------------|--------------------------------|
------------------8----10---------|------------------8----10-------|
--10-9----7------------------7----|--10-9----7------------------7--|
-------7----7--7----7-----7----7--|-------7----7--7----7-----7-----|
----------------------------------|--------------------------------|
----------------------------------|--------------------------------|


  E   E  E  E  E  E          
---------------------|-----||
---------------------|-----||
--L\-----------------|-----||
---------------------|-----||
---------------------|-----||
---------------------|-----||


Guitar 3

Starts at (02:07)

            PM    PM PM    PM PM PM PM PM    PM    
   S  S  S  S  S  S  S  S  S  S  S  S  S  S  S  S  
--------------------------------------------------|
-----10--L----------------------------------------|
--12--L-12----12-------10-------------------------|
-----------12----12-10----10----10-------12----10-|
-----------------------------12----12-13----12----|
--------------------------------------------------|


  PM PM PM PM PM PM PM PM PM PM PM PM PM PM     
  S  S  S  S  S  S  S  S  S  S  S  S  S  S  E   
-----------------------------------------------|
-----------------------------------------------|
-----------------------------------------------|
--3--7--3-----5--------7--------7--------7-----|
-----------7-----7--5-----5--3-----3-----------|
--------------------------------------7-----3--|


            PM    PM PM    PM PM PM PM PM    PM    
   S  S  S  S  S  S  S  S  S  S  S  S  S  S  S  S  
--------------------------------------------------|
-----10--L----------------------------------------|
--12--L-12----12-------10-------------------------|
-----------12----12-10----10----10-------12----10-|
-----------------------------12----12-13----12----|
--------------------------------------------------|


  PM PM PM PM PM PM PM PM PM PM PM PM PM PM                                     
  S  S  S  S  S  S  S  S  S  S  S  S  S  S  E                                   
-----------------------------------------------|-------|-------|-------|-------|
-----------------------------------------------|-------|-------|-------|-------|
-----------------------------------------------|-------|-------|-------|-------|
--3--7--3-----5--------7--------7--------7-----|-------|-------|-------|-------|
-----------7-----7--5-----5--3-----3-----------|-------|-------|-------|-------|
--------------------------------------7-----3--|-------|-------|-------|-------|


Duration Legend
---------------
W - whole
H - half
Q - quarter
E - 8th
S - 16th
T - 32nd
X - 64th
. - note dotted
|-n-|  - n-tuplets


Tablature Legend
----------------
L - tied note
x - dead note
g - grace note
(n) - ghost note
> - accentuded note
NH - natural harmonic
AH - artificial harmonic
TH - tapped harmonic
SH - semi harmonic
PH - pitch harmonic
h - hammer on
p - pull off
b - bend
br - bendRelease
pb - preBend
pbr - preBendRelease
brb - bendReleaseBend
\n/ - tremolo bar dip
\n - tremolo bar dive
-/n - tremolo bar Release up
/n\ - tremolo bar inverted dip
/n - tremolo bar return
-\n - tremolo bar Release down
S - shift slide
s - legato slide
/ -  slide into from below or out of upwards
\ -  slide into from above or out of downwards
~ - vibrato
W - wide vibrato
tr - trill
TP - tremolo picking
T - tapping
S - slap
P - pop
< - fade in
^ - brush up
v - brush down


That is all! I hope this helped, and be sure to check out my cover if you are
having problems with the tab. Thanks, oh and one last thing... ROCK OUT!!!!
comments
We did not receive enough feedback on this tab! Please rate:
print report bad tab
1 2 3 4 5
I want to post or [tab]
guest
You may want to rate the tab now too:
select rating
Please do not post tabs as comments. Select "correction" instead!