Oops, an error
Loading. Please wait.

Burn Bass Tab

83 views 1 this week
no commentswrite comment
1 2 3 4 5
please rate
Autoscroll
+/-
esc
set tempo
stop
Contributor
Difficulty
intermediate
WARNING: You are trying to view
                                    content from Ultimate-Guitar.com
                                    in an unauthorized application,
                                    which is prohibited.

                                    Please use an official Ultimate
                                    Guitar Tabs application for iPhone,
                                    iPad or Android to access legitimate
                                    chords, guitar, bass, and drum tabs
                                    from Ultimate-Guitar.com database.

                                    Type "ultimate guitar tabs" in Apple
                                    App Store's or Android Market's
                                    search to find the application.
-------------------------------------------------------------------------------
                             BURN - KING DIAMOND
-------------------------------------------------------------------------------
Tabbed by: Aukustus

Tuning: Standard

0:00
G|---------------------------------------------------------------------------|
D|---------------------------------------------------------------------------|
A|-------------------------5---6---------------------------------------------|
E|-0-0-------------0-0-------------------------------------------------------|

G|---------------------------------------------------------------------------|
D|---------------------------------------------------------------------------|
A|-------------------------5---3---------------------------------------------|
E|-0-0-------------0-0-------------------------------------------------------|

G|---------------------------------------------------------------------------|
D|---------------------------------------------------------------------------|
A|-------------------------5---6---------------------------------------------|
E|-0-0-------------0-0-------------------------------------------------------|

G|---------------------------------------------------------------------------|
D|---------------------------------------------------------------------------|
A|-------------------------5---3---------------------------------------------|
E|-0-0-------------0-0-------------------------------------------------------|

Quite tricky rhythm during the verses

0:18
G|---------------------------------------------------------------------------|
D|---------------------------------------------------------------------------|
A|-22-2-02-22-2-02-22-2-02-333-000-------------------------------------------|
E|---------------------------------------------------------------------------|

Twice
G|---------------------------------------------------------------------------|
D|---------------------------------------------------------------------------|
A|-22-2-02-22-2-02-22-2-02-33-300-0------------------------------------------|
E|---------------------------------------------------------------------------|

0:32
G|---------------------------------------------------------------------------|
D|---------------------------------------------------------------------------|
A|-7--7-5s7-------7s910--12--9-----------------------------------------------|
E|---------------------------------------------------------------------------|

G|---------------------------------------------------------------------------|
D|---------------------------------------------------------------------------|
A|-7--7-5s7-------7s910--9--5-----54-----------------------------------------|
E|---------------------------------------------------------------------------|

0:40
G|---------------------------------------------------------------------------|
D|---------------------------------------------------------------------------|
A|-22-2-02-22-2-02-22-2-02-333-000-------------------------------------------|
E|---------------------------------------------------------------------------|

Twice
G|---------------------------------------------------------------------------|
D|---------------------------------------------------------------------------|
A|-22-2-02-22-2-02-22-2-02-33-300-0------------------------------------------|
E|---------------------------------------------------------------------------|

0:54
G|---------------------------------------------------------------------------|
D|---------------------------------------------------------------------------|
A|-7--7-5s7-------7s910--12--9-----------------------------------------------|
E|---------------------------------------------------------------------------|

G|---------------------------------------------------------------------------|
D|---------------------------------------------------------------------------|
A|-7--7-5s7-------7s910--9--5------------------------------------------------|
E|---------------------------------------------------------------------------|

1:03
G|---------------------------------------------------------------------------|
D|---------------------------------------------------------------------------|
A|-------------------------5---6---------------------------------------------|
E|-0-0-------------0-0-------------------------------------------------------|

G|---------------------------------------------------------------------------|
D|---------------------------------------------------------------------------|
A|-------------------------5---3---------------------------------------------|
E|-0-0-------------0-0-------------------------------------------------------|

1:13
G|---------------------------------------------------------------------------|
D|---------------------------------------------------------------------------|
A|-7-------8-------7-------5---6---7-------8-------7-------5---3-------------|
E|---000000--000000--000000----------000000--000000--000000------------------|

1:22
G|---------------------------------------------------------------------------|
D|----------------------5---4------------------------------------------------|
A|-2---3--2---3--2---3-------------------------------------------------------|
E|---------------------------------------------------------------------------|

Tempo change

1:26 
G|---------------------------------------------------------------------------|
D|---------------------------------------------------------------------------|
A|-5---5---5---5---8---8---7---7---5---5---5---5---8--10--12--10--8--7-------|
E|---------------------------------------------------------------------------|
                                                   | triplet quarters |

G|---------------------------------------------------------------------------|
D|---------------------------------------------------------------------------|
A|-5---5---5---5---8---8---7---7---5---5---5---5---8--10--12--13--12--10-----|
E|---------------------------------------------------------------------------|
                                                   | triplet quarters |
1:40
G|---------------------------------------------------------------------------|
D|---------------------------------------------------------------------------|
A|-0--0----------0--0---6--5--0--0---2--3---3s6---6--5-----------------------|
E|---------------------------------------------------------------------------|

G|---------------------------------------------------------------------------|
D|---------------------------------------------------------------------------|
A|-0--0---2--3---0--0---6--5--0--0---2--3---3s6---6--5-----------------------|
E|---------------------------------------------------------------------------|

1:53
G|---------------------------------------------------------------------------|
D|---------------------------------------------------------------------------|
A|-5---5---5---5---8---8---7---7---5---5---5---5---8--10--12--10--8--7-------|
E|---------------------------------------------------------------------------|
                                                   | triplet quarters |

G|---------------------------------------------------------------------------|
D|---------------------------------------------------------------------------|
A|-5---5---5---5---8---8---7---7---5---5---5---5---8--10--12--13--12--10-----|
E|---------------------------------------------------------------------------|
                                                   | triplet quarters |
2:07
G|---------------------------------------------------------------------------|
D|---------------------------------------------------------------------------|
A|-0--0---2--3---0--0---6--5--0--0---2--3---3s6---6--5-----------------------|
E|---------------------------------------------------------------------------|

G|------------------------------------------5s8---8--7-----------------------|
D|---------------------------------------------------------------------------|
A|-0--0---2--3---0--0---6--5--0--0---2--3------------------------------------|
E|---------------------------------------------------------------------------|

Back to original tempo

2:20 Three times
G|---------------------------------------------------------------------------|
D|---------------------------------------------------------------------------|
A|-22-2-02-22-2-02-22-2-02-33-300-0------------------------------------------|
E|---------------------------------------------------------------------------|

2:34
G|---------------------------------------------------------------------------|
D|---------------------------------------------------------------------------|
A|-7--7-5s7-------7s910--12--9-----------------------------------------------|
E|---------------------------------------------------------------------------|

G|---------------------------------------------------------------------------|
D|---------------------------------------------------------------------------|
A|-7--7-5s7-------7s910--9--5------------------------------------------------|
E|---------------------------------------------------------------------------|

2:44
G|---------------------------------------------------------------------------|
D|---------------------------------------------------------------------------|
A|-7-------8-------7-------5---6---7-------8-------7-------5---3-------------|
E|---000000--000000--000000----------000000--000000--000000------------------|

Twice
G|---------------------------------------------------------------------------|
D|---------------------------------------------------------------------------|
A|---------------------------------------------------------------------------|
E|-5-5555556-5555555-5555553---4---------------------------------------------|

3:02
G|---------------------------------------------------------------------------|
D|---------------------------------------------------------------------------|
A|-22-2-02-22-2-02-22-2-02-333-000-------------------------------------------|
E|---------------------------------------------------------------------------|

Twice
G|---------------------------------------------------------------------------|
D|---------------------------------------------------------------------------|
A|-22-2-02-22-2-02-22-2-02-33-300-0------------------------------------------|
E|---------------------------------------------------------------------------|

3:15

G|---------------------------------------------------------------------------|
D|---------------------------------------------------------------------------|
A|-7--7-5s7-------7s910--12--9-----------------------------------------------|
E|---------------------------------------------------------------------------|

G|---------------------------------------------------------------------------|
D|---------------------------------------------------------------------------|
A|-7--7-5s7-------7s910--9--5------------------------------------------------|
E|---------------------------------------------------------------------------|

3:24
G|---------------------------------------------------------------------------|
D|---------------------------------------------------------------------------|
A|-7-------8-------7-------5---6---7-------8-------7-------5---3-------------|
E|---000000--000000--000000----------000000--000000--000000------------------|

3:34
G|---------------------------------------------------------------------------|
D|---------------------------------------------------------------------------|
A|-22-2-02-22-2-02-22-2-02-33-300-0------------------------------------------|
E|---------------------------------------------------------------------------|

G|---------------------------------------------------------------------------|
D|---------------------------------------------------------------------------|
A|-22-2-02-------------------------------------------------------------------|
E|---------------------------------------------------------------------------|


| s = slide

===============================================================================
comments
We did not receive enough feedback on this tab! Please rate:
print report bad tab
1 2 3 4 5
I want to post or [tab]
guest
You may want to rate the tab now too:
select rating
Please do not post tabs as comments. Select "correction" instead!