Oops, an error
Loading. Please wait.

Conspiracy Tab

2,231 views 3 this week
1 commentread comment
1 2 3 4 5
worth learning
x 1
add to favorites launch autoscroll
font size
0
reset
Autoscroll
+/-
esc
set tempo
stop
Contributor
Difficulty
advanced
WARNING: You are trying to view
                                    content from Ultimate-Guitar.com
                                    in an unauthorized application,
                                    which is prohibited.

                                    Please use an official Ultimate
                                    Guitar Tabs application for iPhone,
                                    iPad or Android to access legitimate
                                    chords, guitar, bass, and drum tabs
                                    from Ultimate-Guitar.com database.

                                    Type "ultimate guitar tabs" in Apple
                                    App Store's or Android Market's
                                    search to find the application.
Band - King Diamond
Album - Conspiracy

Track Listings:
1. At The Graves
2. Sleepless Nights
3. Lies
4. A Visit From The Dead
5. The Wedding Dream
6. 'Amon' Belongs To 'Them'
7. Something Wierd
8. Victimized
9. Cremation

----------------------------------------------------

1. AT THE GRAVES

Tuning: Standard

Riff 1
Guitar 1
e|--------------------|
B|--------------------|
G|--------------------|
D|--2----3----4----5--|
A|--0----1----2----3--|
E|------------2----3--|
   "Rise, rise..."

Guitar 2
e|--------------------|
B|--------------------|
G|--------------------|
D|--------------------|
A|--4----5----6----7--|
E|--------------------|



Riff 2                           
e|--------------------------------------------|
B|--------------------------------------------|
G|--------------------------------------------|
D|-9---/9--8--12-11-12------------------------|
A|-7---/9--8--10--9-10--10---10~~-----5-3-2-0-|
E|-----------------------8----a----33---------|
                                   ** * * * * 
  "Spirits, rising from the grave..."
e|------------------------------------|
B|------------------------------------|
G|------------------------------------|
D|-9---/9--8--12-11-12--/14-----------|
A|-7---/9--8--10--9-10--/12-----------|
E|-----------------------------11tr12-|
  "Burning shadows..."
e|------------------------------------------------|
B|------------------------------------------------|
G|---------------------------12~~-----------------|
D|-9---/9--8--12-11-12--------a--------12-10-9----|
A|-7---/9--8--10--9-10--10--------1010---------12-|
E|-----------------------8------------------------|
                                   * *  *  * *  * 
  "Icy fingers, all over my hand..."
e|------------------------------------|
B|------------------------------------|
G|------------------------------------|
D|-9---/9--8--12-11-12--/14-----------|
A|-7---/9--8--10--9-10--/12-----------|
E|-----------------------------11tr12-|
  "Try to make me, understand..."


Riff 3
e|------------------------|
B|------------------------|
G|------------------------|
D|-14------14------14-----|
A|-12--13--12--13--12--13-|
E|-----11------11------11-|
  "Finally we have..."


Riff 4                            x2
e|---------------------------------|
B|---------------------------------|
G|---------------------0-----0-----|
D|-9------7----------2-----0-------|
A|-7------5----0-2-3-----2---------|
E|----0-0----------------------3-2-|
      * *                      
  "...returned..."
e|-------------------------|
B|-------------------------|
G|-------------------------|
D|-9---------------9-9--10-|
A|-7------8--------7-7---8-|
E|----0-0-6----0-0---------|
      * *      * *
e|---------------------------------|
B|---------------------------------|
G|---------------------0-----0-----|
D|-9-----------------2-----0-------|
A|-7------8----0-2-3-----2---------|
E|----0-0-6--------------------3-2-|
      * *                      

Play Riff 1   "Missy is that you..."
Play Riff 2   "Spirits, rising from the grave..."

Riff 5
e|-----------------------|
B|-----------------------|
G|-----------------------|
D|-12------11------10----|
A|-10--11---9--10---8--9-|
E|------9-------8------7-|
  "THEY are back to share my..."

Riff 6                                          
e|-----------------------------------------------|
B|-----------------------------------------------|
G|-2-----3-----2-----5-3-2-----3-----2-----------|
D|-2-----3-----2-----5-3-2-----3-----2-----3/4-5-|
A|---0-0---0-0---0-0-------0-0---0-0---0-0-3/4-5-|
E|-----------------------------------------------|
     * *   * *   * *       * *   * *   * *
  "...life..."
e|-------------------------------------------------|
B|-------------------------------------------------|
G|-2-----3-----2-----5-3-2-----3-----2-------------|
D|-2-----3-----2-----5-3-2-----3-----2-----3/4-5---|
A|---0-0---0-0---0-0-------0-0---0-0---0-0-3/4-5-0-|
E|-------------------------------------------------|
     * *   * *   * *       * *   * *   * *       *


Riff 7 (Solo Rhythm)
e|---------------------------------------|
B|---------------------------------------|
G|---------------------------------------|
D|------------4---------4---------4----3-|
A|------------4---------4---------4----3-|
E|-2222222222----222222----222222----2---|
   **********    ******    ******    *
e|---------------------------------------|
B|---------------------------------------|
G|---------------------------------------|
D|------------4---------4---------4----5-|
A|------------4---------4---------4----5-|
E|-2222222222----222222----222222----2---|
   **********    ******    ******    *

Riff 8 (Solo Rhythm)
e|---------------------------------------|
B|---------------------------------------|
G|---------------------------------------|
D|------------6---------6---------6----5-|
A|------------6---------6---------6----5-|
E|-4444444444----444444----444444----4---|
   **********    ******    ******    *
e|---------------------------------------|
B|---------------------------------------|
G|---------------------------------------|
D|------------6---------6---------6--6-5-|
A|------------6---------6---------6--6-5-|
E|-4444444444----444444----444444--------|
   **********    ******    ******    

Riff 9 (Solo Rhythm)
e|--------------|
B|--------------|
G|--------------|
D|-6-7-6--5-6-2-|
A|-6-7-6--5-6-2-|
E|--------------|


Play Riff 6  Solo Rhythm
Play Riff 7  Solo Rhythm
Play Riff 8  Solo Rhythm
Play Riff 9  Solo Rhythm

Riff 10 (Solo Rhythm)
e|----------------|
B|----------------|
G|----------------|
D|-6-7-6--5-6-2-6-|
A|-6-7-6--5-6-2-4-|
E|----------------|


Riff 11
e|----3---3-3-------3---------|
B|----3---3-3-------3---------|
G|----0---0-0-------0---------|
D|----------------------5h7-5-|
A|----------------------5h7-5-|
E|-0----0------0--0---0-------|
        *         *   *
e|----3---3-3-------------------------|
B|----3---3-3-------------------------|
G|----0---0-0-------------------------|
D|------------------------------------|
A|---------------7-7-7-10-10-10-10-10-|
E|-0----0------0-5-5-5--8--8--8--8--8-|
        *      * * * *  *  *  *  *  *
e|----3---3-3-------3---------|
B|----3---3-3-------3---------|
G|----0---0-0-------0---------|
D|----------------------5h7-5-|
A|----------------------5h7-5-|
E|-0----0------0--0---0-------|
        *         *   *
e|----3---3-3--|
B|----3---3-3--|
G|----0---0-0--|
D|-------------|
A|-------------|
E|-0----0------|
        *


Riff 12
e|-------------------------------------------|
B|-------------------------------------------|
G|-------------------------------------------|
D|-------------------------------------------|
A|----7-7-7-10-10-10-10-10--3-3-3-6-6-6-6----|
E|-55-5-5-5--8--8--8--8--8--1-1-1-4-4-4-4-44-|
   ** * * *  *  *  *  *  *  * * * * * * * ** 
  "Missy come, come with me..."
e|--------------------|
B|--------------------|
G|--------------------|
D|------------------9-|
A|-7-7-7--10--9--7--7-|
E|-5-5-5---8--7--5--7-|
   * * * 
  "...there are things I must know..."
e|-------------------------------------------|
B|-------------------------------------------|
G|-------------------------------------------|
D|-------------------------------------------|
A|----7-7-7-10-10-10-10-10--3-3-3-6-6-6-6----|
E|-55-5-5-5--8--8--8--8--8--1-1-1-4-4-4-4-44-|
   ** * * *  *  *  *  *  *  * * * * * * * ** 
  "How did you get here..."
e|--------------------|
B|--------------------|
G|--------------------|
D|------------------6-|
A|-7-7-7--10--9--7--4-|
E|-5-5-5---8--7--5--4-|
   * * * 
  "...to the other side..."


Play Riff 2   "Spirits, rising from the grave..."
Play Riff 3   "Am I glad you have returned..."
Play Riff 4   "All of You..."
Play Riff 1

Riff 13 (Solo Rhythm)           x2
e|-------------------------------|
B|-------------------------------|
G|-------------------------------|
D|------4----------5---------4---|
A|-----------------3-------------|
E|-2-22---2--2-2-2------2-22---2-|
   * **   *  * * *      * **   *           x2
e|------------------------------------------|
B|------------------------------------------|
G|------------------------------------------|
D|------6----------7---------6--------7-6-4-|
A|-----------------5------------------5-4-2-|
E|-4-44---4--4-4-4------4-44---4--4-4-------|
   * **   *  * * *      * **   *  * *
                                           x2
e|------------------------------------------|
B|------------------------------------------|
G|------------------------------------------|
D|------8----------9---------8--------9-8-6-|
A|-----------------7------------------7-6-4-|
E|-6-66---6--6-6-6------6-66---6--6-6-------|
   * **   *  * * *      * **   *  * *
                                x2
e|-------------------------------|
B|-------------------------------|
G|-------------------------------|
D|------6----------7---------6---|
A|-----------------5-------------|
E|-4-44---4--4-4-4------4-44---4-|
   * **   *  * * *      * **   * 


Lead into next section:
e|---------------------------------------|
B|---------------------------------------|
G|---------------------------------------|
D|---------------------------------------|
A|-7-7-7-10-10-10-10-10--3-3-3-6-6-6-6-6-|
E|-5-5-5--8--8--8--8--8--1-1-1-4-4-4-4-4-|
   * * *  *  *  *  *  *  * * * * * * * * 

Play Riff 11
Play Riff 12   "Do you remember..."
Play Riff 2    

Riff 5a
e|--------------------------|
B|-----------------------10-|
G|------------------------9-|
D|-12------11------10-----7-|
A|-10--11---9--10---8--9----|
E|------9-------8------7----|
  "Show Your powers onto me..."

Riff 14
e|--------------------|
B|----------------10\-|
G|-----------------9\-|
D|-----------------7\-|
A|--------------------|
E|-0-0-0-0-0-0...-----|
   * * * * * *

Riff 15  (Solo Rhythm)
e|---------------------------------------|
B|---------------------------------------|
G|---------------------------------------|
D|---------------------------------------|
A|-4--4-2-3-4-4--4-2-3-4-4--4-2-3-4-4--5-|
E|-2--2-0-1-2-2--2-0-1-2-2--2-0-1-2-2--3-|
   *  * * * * *  * * * * *  * * * * * 
e|---------------------------------------|
B|---------------------------------------|
G|---------------------------------------|
D|----------------------------------4--2-|
A|-4--4-2-3-4-4--4-2-3-4-4--4-2-3-4-2--0-|
E|-2--2-0-1-2-2--2-0-1-2-2--2-0-1-2------|
   *  * * * * *  * * * * *  * * * *

Riff 16  (Solo Rhythm)
e|---------------------------------------|
B|---------------------------------------|
G|---------------------------------------|
D|---------------------------------------|
A|-6--6-4-5-6-6--6-4-5-6-6--6-4-5-6-6--7-|
E|-4--4-2-3-4-4--4-2-3-4-4--4-2-3-4-4--5-|
   *  * * * * *  * * * * *  * * * * * 
e|---------------------------------------|
B|---------------------------------------|
G|---------------------------------------|
D|----------------------------------6--4-|
A|-6--6-4-5-6-6--6-4-5-6-6--6-4-5-6-4--2-|
E|-4--4-2-3-4-4--4-2-3-4-4--4-2-3-4------|
   *  * * * * *  * * * * *  * * * *   

Play Riff 15  Solo Rhythm
Play Riff 16  Solo Rhythm

Riff 17  (Solo Rhythm)
e|----------------------------------------|
B|----------------------------------------|
G|----------------------------------------|
D|-2----4----7----9----2----4----7----10--|
A|-0----2----5----7----0----2----5-----8--|
E|------2----5----7---------2----5-----8--|


Riff 18                  x2
e|------------------------|
B|------------------------|
G|------------------------|
D|------------------------|
A|-5--6--5--6--3--4--3--4-|
E|-3--4--3--4--1--2--1--2-|
   *  *  *  *  *  *  *  * 

Riff 19                           x4
e|---------------------------------|
B|---------------------------------|
G|---------------------------------|
D|---------------------------------|
A|-5-5-6-6-5-5-6-6-3-3-4-4-3-3-4-4-|
E|-3-3-4-4-3-3-4-4-1-1-2-2-1-1-2-2-|
   * * * * * * * * * * * * * * * * 

Riff 20
Guitar 1
e|-------------------------------------------|
B|-------------------------------------------|
G|-------------------------------------------|
D|-2--------------------3--------------------|
A|-0----6-6-7-7-6-6-7-7-1----6-6-7-7-6-6-7-7-|
E|------4-4-5-5-4-4-5-5------4-4-5-5-4-4-5-5-|
        * * * * * * * *      * * * * * * * *
e|---------------------------|
B|---------------------------|
G|---------------------------|
D|-4--------------------5----|
A|-2----6-6-7-7-6-6-7-7-3----|
E|-2----4-4-5-5-4-4-5-5-3----|
        * * * * * * * *

Guitar 2
e|-------------------------------------------|
B|-------------------------------------------|
G|-------------------------------------------|
D|-------------------------------------------|
A|-4----6-6-7-7-6-6-7-7-5----6-6-7-7-6-6-7-7-|
E|------4-4-5-5-4-4-5-5------4-4-5-5-4-4-5-5-|
        * * * * * * * *      * * * * * * * *
e|---------------------------|
B|---------------------------|
G|---------------------------|
D|---------------------------|
A|-6----6-6-7-7-6-6-7-7-7----|
E|------4-4-5-5-4-4-5-5------|
        * * * * * * * *

Riff 21
e|-----------------|
B|-----------------|
G|-----------------|
D|-----------------|
A|-----------------|
E|-4-5-4-5-4-5-4-5-|
   * * * * * * * *

Riff 22
Guitar 1
e|-------------------------|
B|-------------------------|
G|-------------------------|
D|-------------------------|
A|-7-----7-----7-----7-----|
E|-5-----5-----5-----5-----|

Organ (arranged for guitar 2)
e|-------------------------|
B|-------------------------|
G|-------------------------|
D|-------------------------|
A|-4-----3-----7-----12----|
E|-------------------------|

--------------------------------------------------

2. SLEEPLESS NIGHTS

Tuning: Standard

Riff 1
e|--------------------------------|
B|--------------------------------|
G|-4----------4--2~---------------|
D|-4----------4--a----------------|
A|-2------------------------------|
E|-2-22222222--------222222222222-|
     ********        ************
e|-----------------------|
B|-----------------------|
G|-4----------4--/9------|
D|-4----------4--/9---8--|
A|--------------------8--|
E|---22222222------------|
     ********
e|--------------------------------|
B|--------------------------------|
G|-4----------4--2~---------------|
D|-4----------4--a----------------|
A|-2------------------------------|
E|-2-22222222--------222222222222-|
     ********        ************
e|-----------------------|
B|-----------------------|
G|-4----------4--2-------|
D|-4----------4--2-------|
A|--------------------2--|
E|---22222222---------0--|
     ********


Riff 2 (Acoustic)
e|-------0-------------0-------------8-------------7-------|
B|-----6---6---------6---6---------6---6---------6---6-----|
G|---5-------5-----5-------5-----5-------5-----5-------5---|
D|-0-----------0-0-----------0-0-----------0-0-----------0-|
A|---------------------------------------------------------|
E|---------------------------------------------------------|
   "I cannot sleep at night..."


Riff 3 (Distortion)
e|----------------------------------------------|
B|----------------------------------------------|
G|--9-------9-------9---------------------------|
D|--7-------7-------7----9------9-------12-10-9-|
A|----0000----0000----00-8-0000-8-0000----------|
E|----------------------------------------------|
      ****    ****    **   ****   ****
   "And as the clock strikes midnight..."
e|--------------------------------------|
B|--------------------------------------|
G|--9-------9-------9-------------------|
D|--7-------7-------7-------------------|
A|----0000----0000----0-------5-------6-|
E|-----------------------3333-3--4444-4-|
      ****    ****       ****    ****
   "I hear "THEM" dancing at the graves..."
e|----------------------------------------|
B|----------------------------------------|
G|--9-------9-------9------------------9~-|
D|--7-------7-------7----9------9------a--|
A|----0000----0000----00-8-0000-8-0000----|
E|----------------------------------------|
      ****    ****    **   ****   ****
    "Singing to my mind..."
e|-----------------------------|
B|-----------------------------|
G|--9-------9-------9----------|
D|--7-------7-------7----5---7-|
A|----0000----0000----0--3---5-|
E|-----------------------3---5-|
      ****    ****    *
   "Killing the pain..."


Riff 4
e|--------------------------------------------------------|
B|--------------------------------------------------------|
G|--------------------------------------------------------|
D|-6------6------2----6------6------2---6------6----------|
A|-4-0000-2-0000-0----4-0000-2-0000-0---4-0000-2-0000-----|
E|----------------------------------------------------4~~-|
     ****   ****        ****   ****       ****   ****
   "Sleepless nights..."


Riff 5 (3 guitars)
Guitar 1
e|---------------------------|
B|---------------------------|
G|-12------11------12-----9--|
D|-10-------9------10-----7--|
A|----0000----0000----00-----|
E|---------------------------|
      ****    ****    **
e|-----------------------------------------|
B|-----------------------------------------|
G|-12------11----12----14--12-11-12--11--9-|
D|-10-------9----10----12--10--9-10---9--7-|
A|----0000----00----00---------------------|
E|-----------------------------------------|
      ****    **    **
e|---------------------------|
B|---------------------------|
G|-12------11------12-----9--|
D|-10-------9------10-----7--|
A|----0000----0000----00-----|
E|---------------------------|
      ****    ****    **
e|-----------------------------------------|
B|-----------------------------------------|
G|-12------11----12----14--12-11-12--11-7--|
D|-10-------9----10----12--10--9-10---9-5--|
A|----0000----00----00---------------------|
E|-----------------------------------------|
      ****    **    **

Guitar 2
e|--------------------------|
B|--------------------------|
G|--------------------------|
D|-14------12------14----10-|
A|----0000----0000----00----|
E|--------------------------|
      ****    ****    **
e|-----------------------------------------|
B|-----------------------------------------|
G|-----------------------------------------|
D|-14------12----14----15--14-12-14--12-10-|
A|----0000----00----00---------------------|
E|-----------------------------------------|
      ****    **    **
e|--------------------------|
B|--------------------------|
G|--------------------------|
D|-14------12------14----10-|
A|----0000----0000----00----|
E|--------------------------|
      ****    ****    **
e|----------------------------------------|
B|----------------------------------------|
G|----------------------------------------|
D|-14------12----14----15--14-12-14--12-9-|
A|----0000----00----00--------------------|
E|----------------------------------------|
      ****    **    **

Guitar 3 just plays root notes of Guitar 1.



Play Riff 2  "I cannot sleep at night..."


Riff 3a (Distortion)
e|------------------------------------------|
B|------------------------------------------|
G|--9-------9-------9-----------------------|
D|--7-------7-------7----9------9------9/10-|
A|----0000----0000----00-8-0000-8-0000-8----|
E|------------------------------------------|
      ****    ****    **   ****   ****
   "And as the clock strikes midnight..."
e|---------------------------------------|
B|---------------------------------------|
G|--9-------9-------9--------------------|
D|--7-------7-------7--------------------|
A|----0000----0000----0-------5----------|
E|-----------------------3333-3--4444-4~-|
      ****    ****       ****    ****
   "Only "THEY" can let us meet..."
e|----------------------------------------|
B|----------------------------------------|
G|--9-------9-------9------------------9~-|
D|--7-------7-------7----9------9------a--|
A|----0000----0000----00-8-0000-8-0000----|
E|----------------------------------------|
      ****    ****    **   ****   ****
    "Even though she's dead now..."
e|-----------------------------|
B|-----------------------------|
G|--9-------9-------9----------|
D|--7-------7-------7----5---7-|
A|----0000----0000----0--3---5-|
E|-----------------------3---5-|
      ****    ****    *
   "I gotta see her again..."


Play Riff 4  "Sleepless nights..."


Riff 6 (Solo Rhythm)
e|--------------------------------|
B|--------------------------------|
G|-4----------4--2----------------|
D|-4----------4--2----------------|
A|-2------------------------------|
E|-2-22222222--------222222222222-|
     ********        ************
e|-----------------------|
B|-----------------------|
G|-4----------4--/9------|
D|-4----------4--/9---8--|
A|--------------------8--|
E|---22222222------------|
     ********
e|--------------------------------|
B|--------------------------------|
G|-4----------4--2----------------|
D|-4----------4--2----------------|
A|-2------------------------------|
E|-2-22222222--------222222222222-|
     ********        ************
e|-----------------------|
B|-----------------------|
G|-4----------4--2-------|
D|-4----------4--2-------|
A|--------------------2--|
E|---22222222---------0--|
     ********

Riff 7 (Solo Rhythm)
e|------------------------------------------|
B|------------------------------------------|
G|------------------------------------------|
D|------------------------------------------|
A|-6----7-6----6-9-7-6----7--7-6-4---4------|
E|-4----5-4----4-7-5-4----5--------7---7-5~-|
               * *               * * * *   
e|----------------------------------------|
B|----------------------------------------|
G|----------------------------------------|
D|----------------------------------------|
A|-6----7-6----6-9-7-6----7--4-2~----7-6~-|
E|-4----5-4----4-7-5-4----5---------------|
               *
		    
Play Riff 4  (Solo Rhythm)


Solo (Pete Blakk)                                                 
e|------------------------------------------------|
B|--10-10--13-13-13/20-20-19-19-19-17-17-17-20-20-|
G|------------------------------------------------|
D|------------------------------------------------|
A|------------------------------------------------|
E|------------------------------------------------|
                                                            
e|----------------------------------------|--22b--|
B|--19-19-19-17-17-17-19-19-20b-----20h17-|-------|
G|----------------------------------------|-------|
D|----------------------------------------|-------|
A|----------------------------------------|-------|
E|----------------------------------------|-------|
                                 
e|-------------------------------------|
B|-------------------------------------|
G|---------------19/12-----------------|
D|---------------------14--------------|
A|------------------------14-----------|
E|--19/15/12/9/5-------------12~-------|
                                            
e|--17-14-16-14-17-19-17-14-17-16-14-14-17b---|
B|--------------------------------------------|
G|--------------------------------------------|
D|--------------------------------------------|
A|--------------------------------------------|
E|--------------------------------------------|
                                                    
e|------17-14-19-17h16h14-17h16h14-17h16h14-17h16h14-|
B|---------------------------------------------------|
G|---------------------------------------------------|
D|---------------------------------------------------|
A|---------------------------------------------------|
E|---------------------------------------------------|
                                                                                
e|--------------------------------------------------|------------------|
B|--17h15h14-15h17h15-14----------------------------|------------------|
G|-----------------------16h14h13-16h14h13-16h14h13h|--16h14h13--------|
D|--------------------------------------------------|-----------12-14~-|
A|--------------------------------------------------|------------------|
E|--------------------------------------------------|------------------|
                       
e|--17r---22r-----------|
B|----------------------|
G|----------------------|
D|----------------------|
A|----------------------|
E|----------------------|
                                                               
e|--19h17h16h19h17h16-------------------------------------------|
B|--------------------17h15h14h17h15h14-------------------------|
G|-----------------------------------------------16-14-13-14-16-|
D|--------------------------------------16-14-12----------------|
A|--------------------------------------------------------------|
E|--------------------------------------------------------------|
                                                   
e|--------------------------------------------------|
B|--------------------------------------------------|
G|--14-13----------------13-16-13-------------12----|
D|--------16-14-12-14-16----------16-12-14-12----16-|
A|--------------------------------------------------|
E|--------------------------------------------------|
                                                                      
e|------------------------------------------------|--22~--|
B|------------------------------------------------|-------|
G|-----12-----------------------------------------|-------|
D|--14----16h14h12----------------16r-16r-16r-16r-|-------|
A|-----------------16h14h12-----------------------|-------|
E|--------------------------16/12-----------------|-------|
                                                   
e|------------------------|-------------------------|
B|------------------------|-----------------10~-----|
G|------------------------|-----------------9~------|
D|-----------------7~-----|-----------------7~------|
A|--6h8h6h4-6-------------|--6h8h6h4-6--------------|
E|------------------------|-------------------------|
                                            
e|--------------------------------------------|
B|--------------------------------------------|
G|--------------------------------------------|
D|--12----------------------------------------|
A|------16--14--12--14--12--x---x---x---------|
E|------x---x---x---x---x---16--14--11--12~---|
                                                   
e|--17-17-17-17-17-14-14-14-14----------------------|
B|-----------------------------16-16-16-13-13----13-|
G|--------------------------------------------14----|
D|--------------------------------------------------|
A|--------------------------------------------------|
E|--------------------------------------------------|
                                     
e|--17-14----------------14-17--------|
B|--------16----------16--------------|
G|-----------14----14-----------------|
D|--------------16--------------------|
A|------------------------------------|
E|------------------------------------|
                                                  
e|--19-19-19-19-19-16-16-16-16----------------------|
B|-----------------------------18-18-18-18-15-15-15-|
G|--------------------------------------------------|
D|--------------------------------------------------|
A|--------------------------------------------------|
E|--------------------------------------------------|
                                            
e|--19h-16--------------16--19h-16------------|
B|----------18------18--------------18--------|
G|--------------16----------------------16----|
D|--------------------------------------------|
A|--------------------------------------------|
E|--------------------------------------------|
                                                                       
e|--------------------------------------------------|-------|
B|--------------------------------------------------|-------|
G|----------13--16h-13--------------13--16h13-------|-------|
D|--------------------------------------------------|-------|
A|--12--16--------------16--12--16------------16-12-|-------|
E|--------------------------------------------------|--16~--|

End Solo



Riff 5a (Guitar 2 plays notes in () )
e|---------------------------(12-12\8-8/13)-|
B|----------------------------12-12\8-8/13--|
G|-12------11------12-----9-----------------|
D|-10-------9------10-----7-----------------|
A|----0000----0000----00--------------------|
E|------------------------------------------|
      ****    ****    **
e|-----------------------------------------|
B|-----------------------------------------|
G|-12------11----12----14--12-11-12--11--9-|
D|-10-------9----10----12--10--9-10---9--7-|
A|----0000----00----00---------------------|
E|-----------------------------------------|
      ****    **    **
e|-----------------------------7------------------|
B|-------------------------------10-9-7-10-9-7----|
G|-12------11------12-----9---------------------9-|
D|-10-------9------10-----7-----------------------|
A|----0000----0000----00--------------------------|
E|------------------------------------------------|
      ****    ****    **
e|-----------------------------------------|
B|-----------------------------------------|
G|-12------11----12----14--12-11-12--11-7--|
D|-10-------9----10----12--10--9-10---9-5--|
A|----0000----00----00---------------------|
E|-----------------------------------------|
      ****    **    **


Riff 8 (Solo Rhythm)
e|--------------------------------------------|
B|--------------------------------------------|
G|--------------------------------------------|
D|--------------4--4--------------------------|
A|-3--3--3-2----2--2--3-2~--3--3--3-2----5--5-|
E|-1--1------1--------------1--1------1--3--3-|
         * * *                    * * * 
e|-------------------|
B|-------------------|
G|-------------------|
D|--------------4----|
A|-3--3--3-2----2--2-|
E|-1--1------1-----0-|
         * * * 


Play Riff 5  Solo Rhythm


Riff 9 (Solo Rhythm)
e|---------------------------------------|
B|---------------------------------------|
G|---------------------------------------|
D|-3--3--3--3--3--3--3--3--5-5-5-5-5-5-5-|
A|-1--1--1--1--1--1--1--1--3-3-3-3-3-3-3-|
E|---------------------------------------|
   *  *  *  *  *  *  *  *  * * * * * *

Solo
E|--------------------------------------------|
B|--------------------------------------------|
G|--------------------------------------------|
D|---------------------9~~-------9~~----10--9-|
A|-8~~----8~~----8--7---------9---------------|
E|--------------------------------------------|

             Harmony
E|-----------------------------------------------|
B|-----------------------------------------------|
G|-----------12~---12-10--9-10-10~----9/10\ 9-7~-|
D|-7~~----7--14~---14-12-10-12-12~---10/12\10-9~-|
A|-----------------------------------------------|
E|-----------------------------------------------|

E|-----------------------------------------|
B|-----------------------------7-----9-----|
G|-5-7--9~--------------5-7--9-8-----9-----|
D|-7-9-10~---9/10\9-7---7-9-10-------------|
A|-----------------------------------------|
E|-----------------------------------------|

E|-17~~----17--19--20--24~~----242419-17~~----|
B|--------------------------------------------|
G|--------------------------------------------|
D|--------------------------------------------|
A|--------------------------------------------|
E|--------------------------------------------|

E|---12-12~~----10--------121915-14-----------|
B|----------------12111212----------12--------|
G|-9-----------------------------------9~~----|
D|--------------------------------------------|
A|--------------------------------------------|
E|--------------------------------------------|

E|------------------------------------------------------------12~~---|
B|-----------10-12-14-131210-------10---------------------8-9--------|
G|-12--11-12-----------------12-11----12--9--10----------------------|
D|-----------------------------------------------12------------------|
A|-------------------------------------------------12-10-------------|
E|-------------------------------------------------------------------|

E|------------------------------------------17-------19-------20\----|
B|-10-------10-11-13-11-10---------------------16-------18-----------|
G|----10-12----------------12-10-9----9~~---------15-------17--------|
D|---------------------------------12--------------------------------|
A|-------------------------------------------------------------------|
E|-------------------------------------------------------------------|

End Solo


Play Riff 2  "I cannot sleep at night..."


Riff 10 (Guitar 2 plays notes in () )
e|----------------------------------|
B|----------------------------------|
G|----------------------------------|
D|----------------------(9--8-/12~)-|
A|-2--2--2-2-2--5--4--2--7--6-/10~~-|
E|-0--0--0-0-0--3--2--0-------------|
   *  *  * * *  *  *  *   
  "Then let us make you an eternal deal..."
e|--------------------------|
B|--------------------------|
G|-----------------------4--|
D|-----------------------4--|
A|-2--2--2-2-2--5--4--2--2--|
E|-0--0--0-0-0--3--2--0--2--|
   *  *  * * *  *  *  * 
  "You will attend to the graves..."
e|----------------------------------|
B|----------------------------------|
G|----------------------------------|
D|----------------------(9--8-/12~)-|
A|-2--2--2-2-2--5--4--2--7--6-/10~~-|
E|-0--0--0-0-0--3--2--0-------------|
   *  *  * * *  *  *  * 
  You'll give us the house back and keep in mind..."
e|---------------------------|
B|---------------------------|
G|-------------------12-11~--|
D|--------------(9-7-10--9~)-| <-- Harmony plays first two top notes
A|-2--2--2-2-2--10-9---------|     then next two bottom notes
E|-0--0--0-0-0---------------|
   *  *  * * * 
  "That we only come here at night..."


Riff 11                                      x3
e|--------------------------------------------|
B|--------------------------------------------|
G|--------------------------------------------|
D|-9--9--7/9--9-9/11-11--7--7--4-4-7-7\4-4--7-|
A|-7--7--5/7--7-7/-9--9--5--5--2-2-5-5\2-2--5-|
E|--------------------------------------------|
   "So we made the deal under the starry night and..." 

e|------------------|
B|-6-6-6-6--6-6-6-6-|
G|-8-8-8-8--8-8-8-8-|
D|-8-8-8-8--8-8-8-8-|
A|-6-6-6-6--6-6-6-6-|
E|------------------|


Riff 3b
e|------------------------------------------|
B|------------------------------------------|
G|--9-------9-------9-----------------------|
D|--7-------7-------7----9------9------9/10-|
A|----0000----0000----00-8-0000-8-0000-8----|
E|------------------------------------------|
      ****    ****    **   ****   ****
   "And as the sun breaks up the dark..."
e|--------------------------------------|
B|--------------------------------------|
G|--9-------9-------9---(11~~)--(12~~)--| <-- Guitar 2
D|--7-------7-------7-------------------|
A|----0000----0000----0---9~~----10~~---|
E|------------------------a-------a-----|
      ****    ****  
   "I can't hear "THEM" dance no more..."
e|------------------------------------------|
B|------------------------------------------|
G|--9-------9-------9-----------------------|
D|--7-------7-------7----9------9------9/10-|
A|----0000----0000----00-8-0000-8-0000-8----|
E|------------------------------------------|
      ****    ****    **   ****   ****
    "There's no voices..."
e|-----------------------------|
B|-----------------------------|
G|--9-------9-------9----------|
D|--7-------7-------7----5---7-|
A|----0000----0000----0--3---5-|
E|-----------------------3---5-|
      ****    ****    *
   "Killing the pain..."


Play Riff 2

---------------------------------------------------------

3. LIES

Tuning: Standard

Intro
E|-----------|
B|-----------|
G|-----------|
D|-----------|
A|---7-6-5---|
E|-0-------7-|
   * * * * * 


Riff 1
E|------------------------------|
B|------------------------------|
G|------------------------------|
D|-7/6--6--6--6--6-6-6--6-6-6-6-|
A|-5/4--4--4--4--4-4-4--4-4-4-4-|
E|------------------------------|
        *  *  *  * * *  * * * * 
E|-------------------------------|
B|-------------------------------|
G|-------------------------------|
D|-7-6--6--6--6-6-6--6-6---------|
A|-5-4--4--4--4-4-4--4-4-7-6-5---|
E|-----------------------------7-|
   * *  *  *  * * *  * * * * * *
						      

Riff 2                          x2
E|-------------------------------|
B|-------------------------------|
G|-------------------------------|
D|-----9-8-----------------------|
A|---7---------------------------|
E|-7-------0-0-0-6-0-0-0-6-0-0-0-|
           * * * * * * * * * * * 
                                x2     
E|-------------------------------|
B|-------------------------------|
G|-----7-6-----------------------|
D|---5---------------------------|
A|-5-------------4-------4-------|
E|---------3-3-3---3-3-3---3-3-3-|
           * * * * * * * * * * * 


Riff 3
Guitar 1
E|----------------------------|
B|----------------------------|
G|----------------------------|
D|----------------------------|
A|-7-6-5---5-----5------------|
E|-------7---7------7-6-5-3-0-|

E|------------------------------|
B|------------------------------|
G|------------------------10-9~-|
D|--------------------9-8-------|
A|-7-6-5---5----/8--7-----------|
E|-------7---7------------------|

E|----------------------------|
B|----------------------------|
G|----------------------------|
D|----------------------------|
A|-7-6-5---5-----5------------|
E|-------7---7------7-6-5-3-0-|

E|-------------------------------------------------|
B|-------------------------------------------------|
G|------------------------10-9~--9-10-9------------|
D|--------------------9-8---------------9-8--------|
A|-7-6-5---5----/8--7-----------------------8~---\-|
E|-------7---7-------------------------------------|

Guitar 2
E|----------------------------|
B|----------------------------|
G|----------------------------|
D|----------------------------|
A|-7-6-5---5-----5------------|
E|-------7---7------7-6-5-3-0-|

E|-------------------------------|
B|------------------------11-10~-|
G|--------------------9-8--------|
D|-7-6-5---5----/8--7------------|
A|-------7---7-------------------|
E|-------------------------------|
   * * * * * * 
E|----------------------------|
B|----------------------------|
G|----------------------------|
D|----------------------------|
A|-7-6-5---5-----5------------|
E|-------7---7------7-6-5-3-0-|

E|-----------------------------------------------------|
B|------------------------11-10~---10-11-10------------|
G|--------------------9-8-------------------9-8--------|
D|-7-6-5---5----/8--7---------------------------9~---\-|
A|-------7---7-----------------------------------------|
E|-----------------------------------------------------|
   * * * * * * 

Lead into next section:
Guitar 1
E|--------------------------------|
B|--------------------------------|
G|-----5---5-----5-------4--4-4/5-|
D|-----2---2-----2-------1--1-1/2-|
A|-0-0---0---0-0---0-0-0----------|
E|--------------------------------|
   * *   *   * *   * * * 
E|-------------------------|
B|-------------------------|
G|-----5---5-----5---------|
D|-----2---2-----2-------4-|
A|-0-0---0---0-0---0-0-0-2-|
E|-------------------------|
   * *   *   * *   * * * 

Guitar 2 (Play 2x, Let chords ring)
E|-------------------------|
B|-------------------------|
G|-------------------------|
D|-2------------2-------1--|
A|-0------------0-------2--|
E|-------------------------|


Riff 4
E|--------------------------------|
B|--------------------------------|
G|-----5---5-----5-------4--4-4/5-|
D|-----2---2-----2-------1--1-1/2-|
A|-0-0---0---0-0---0-0-0----------|
E|--------------------------------|
   * *   *   * *   * * * 
   "Yesterday I spent an hour..."
E|-------------------------|
B|-------------------------|
G|-----5---5-----5---------|
D|-----2---2-----2-------4-|
A|-0-0---0---0-0---0-0-0-2-|
E|-------------------------|
   * *   *   * *   * * * 
   "...a full hour in therapy..."


Riff 5
E|---------------------------------|
B|---------------------------------|
G|-------7-----------7-----7---7---|
D|-5-----5-----5-----5-----5---5---|
A|-3-3-3-3-3-3-3-3-3-3-3-3-3-3-3-0-|
E|---------------------------------|
     * *   * *   * *   * *   *   *
  "He asked me questions..."
E|----------------------------|
B|----------------------------|
G|----------------------------|
D|---------------4-4-----7--7-|
A|-2-2-2-2-2-1-0-2-2-0-0-5--5-|
E|----------------------------|
   * * * * * * *     * * 
  "That kind of fool..."
E|--------------------------------|
B|--------------------------------|
G|-------7-----------7-----7---7/-|
D|-5-----5-----5-----5-----5---5/-|
A|-3-3-3-3-3-3-3-3-3-3-3-3-3-3-3/-|
E|--------------------------------|
     * *   * *   * *   * *   * 
  "I gave him answers..."
E|--------------------------------|
B|--------------------------------|
G|-------9-----------9------------|
D|-7-----7-----7-----7-----12--12-|
A|-5-5-5-5-5-5-5-5-5-5-5-5-10--10-|
E|--------------------------------|
     * *   * *   * *   * * 
  "The kind of answers..."


Play Riff 4   "Yes, I gave him a bunch of lies..."
Play Riff 5   "He asked me questions..."


Riff 6 (Solo Rhythm)
Guitar 1
E|------------------------------------------|
B|------------------------------------------|
G|----------------------------------0-----0-|
D|-9--9-8-7--5--------9--9-8-7----2-----4---|
A|-7--7-6-5--3--------7--7-6-5--3-----5-----|
E|------------------------------------------|
      * * *              * * *
E|------------------------------|
B|------------------------------|
G|------------------------------|
D|-9--9-8-7--5--------9--9-8-7--|
A|-7--7-6-5--3--------7--7-6-5--|
E|------------------------------|
      * * *              * * *
E|-------0---------------------------0---------------------|
B|---------0---------------------------0-------------------|
G|-----------8---------11-9--------------8---------11-9----|
D|-----9------------10------10-----9------------10------10-|
A|---9-----------10--------------9-----------10------------|
E|-7-----------8---------------7-----------8---------------|

E|-------0---------------------------------------------------------|
B|---------0-------------------------------------------------------|
G|-----------8---------11-9-------------12-11-------------14-12----|
D|-----9------------10------10-------12-------12-------13-------13-|
A|---9-----------10---------------12----------------13-------------|
E|-7-----------8---------------10----------------11----------------|

E|------------------------------------------|
B|------------------------------------------|
G|----------------------------------0-----0-|
D|-9--9-8-7--5--------9--9-8-7----2-----4---|
A|-7--7-6-5--3--------7--7-6-5--3-----5-----|
E|------------------------------------------|
      * * *              * * *
E|------------------------------------------|
B|------------------------------------------|
G|----------------------------------0-----0-|
D|-9--9-8-7--5--------9--9-8-7----2-----4---|
A|-7--7-6-5--3--------7--7-6-5--3-----5-----|
E|------------------------------------------|
      * * *              * * *

Guitar 2
E|-------------------------------------------------|
B|-------------------------------------------------|
G|-------------------------------------------------|
D|------4-5-4~--5~---------4-5-7~--5-4-5~--4h5p4---|
A|-7--7---------------7--7-----------------------7-|
E|-------------------------------------------------|

E|-----------------------------|
B|-----------------------------|
G|-----------------------------|
D|------4-5-4~--5~---------4-5-|
A|-7--7---------------7--7-----|
E|-----------------------------|

E|-----------------------------------------|
B|-----------------------------------------|
G|-----------------------------------------|
D|-4----5----4----5----4----5----7----8----|
A|-2----3----2----3----2----3----5----6----|
E|-----------------------------------------|

E|-------------------------------------------------|
B|-------------------------------------------------|
G|-------------------------------------------------|
D|------4-5-4~--5~---------4-5-7~--5-4-5~--4h5p4---|
A|-7--7---------------7--7-----------------------7-|
E|-------------------------------------------------|

E|------------------------------------------|
B|------------------------------------------|
G|------------------------------------------|
D|------4-5-4~--5~---------4-5-7~-----------|
A|-7--7---------------7--7---------3~----5~-|
E|------------------------------------------|



Play Riff 4  "The doctor looked..."
Play Riff 5  "I should have taken..."


Riff 7 (Solo Rhythm)                     x2
E|----------------------------------------|
B|----------------------------------------|
G|----------------------------------------|
D|-------------------7--------------------|
A|-2-2-2-2-2-0-2-2-2-5--2-2-2-2-2-0--5--7-|
E|-----------------------------------3--5-|
   * * * * * * * * *    * * * * * * 
E|----------------------------------------|
B|----------------------------------------|
G|-----------------------------------6--7-|
D|-------------------9---------------4--5-|
A|-4-4-4-5-4-4-5-4-4-7--4-4-4-5-4-4--4--5-|
E|----------------------------------------|
   * * * * * * * * *    * * * * * * 
E|----------------------------------------------|
B|----------------------------------------------|
G|----------------------------------------------|
D|-------------------9--------------------------|
A|-4-4-4-5-4-4-5-4-4-7--4-3-3-3-3-3-4-3-3-3-3-3-|
E|----------------------------------------------|
   * * * * * * * * *    * * * * * * * * * * * * 
E|----------------------------------------|
B|----------------------------------------|
G|-----------------------------------6--7-|
D|-------------------9---------------4--5-|
A|-4-4-4-5-4-4-5-4-4-7--4-4-4-5-4-4--4--5-|
E|----------------------------------------|
   * * * * * * * * *    * * * * * * 
E|--------------------------------------------------|
B|--------------------------------------------------|
G|--------------------------------------------------|
D|-------------------9---------------------------6--|
A|-4-4-4-5-4-4-5-4-4-7--4-3-3-3-3-3-4-3-3-3-3-3--4--|
E|-----------------------------------------------4--|
   * * * * * * * * *    * * * * * * * * * * * * 


Riff 8
Guitar 1
E|-----------3------|
B|-----------3----3-|
G|-----------0----2-|
D|------4---------0-|
A|-2----2-----------|
E|-0----------------|

Guitar 2
E|------------------|
B|------------------|
G|------------------|
D|------------------|
A|-7----5---------8-|
E|-----------6------|


Riff 9                          x2
E|-------------------------------|
B|-------------------------------|
G|-------------------------------|
D|-------------------------------|
A|---------4-3---4-3-------------|
E|-2-2-2-2-----2-----2-2-2-5-4-0-|
   * * * * * * * * * * * * * *   
  "That night I cleaned the entire house..."
                                x2
E|-------------------------------|
B|-------------------------------|
G|-------------------------------|
D|-------------------------------|
A|---------7-6---7-6-------------|
E|-5-5-5-5-----5-----5-5-5-8-7-3-|
   * * * * * * * * * * * * * *
  "No dust, no tea, ah stupid me..."


Riff 10 
Guitar 1
E|-----------------------------|
B|-----------------------------|
G|-----------------------------|
D|-----------------------------|
A|-----------------------------|
E|-8-8-8-8-7-7-7-7-6-6-6-6-0-0-|
   * * * * * * * * * * * * * * 
Guitar 2
E|-----------------------------|
B|-----------------------------|
G|-----------------------------|
D|-----------------------------|
A|-7-7-7-7-6-6-6-6-5-5-5-5-----|
E|-------------------------0-0-|
   * * * * * * * * * * * * * * 


Riff 9a
E|-------------------------------|
B|-------------------------------|
G|-------------------------------|
D|-------------------------------|
A|---------4-3---4-3-------------|
E|-2-2-2-2-----2-----2-2-2-5-4-0-|
   * * * * * * * * * * * * * *   
  "The sun is up..."
E|-------------------------------|
B|-------------------------------|
G|-------------------------------|
D|-------------------------------|
A|---------7-6---7-6-------------|
E|-5-5-5-5-----5-----5-5-5-8-7-3-|
   * * * * * * * * * * * * * *
  "Oh, I'm so tired..."


Play Riff 10  2 times

Riff 10a
Guitar 1
E|------------------------------------|
B|------------------------------------|
G|------------------------------------|
D|----------------------------------2-|
A|-----------------8-8-8-8-7-7-7-7--0-|
E|-8-8-8-8-7-7-7-7--------------------|
   * * * * * * * * * * * * * * * * 
  "I can't wait no more!"

Guitar 2
E|------------------------------------|
B|------------------------------------|
G|------------------------------------|
D|-----------------7-7-7-7-6-6-6-6--2-|
A|-7-7-7-7-6-6-6-6------------------0-|
E|------------------------------------|
   * * * * * * * * * * * * * * * *
  

Play Intro
Play Riff 2   Solo Rhythm
Play Riff 3

Ending Chord
E|------|
B|------|
G|------|
D|--9\--|
A|--7\--|
E|--7\--|

-----------------------------------------------------

4. A VISIT FROM THE DEAD

Tuning: Standard

Riff 1 (Acoustic)
e|-----------12-------------------13--------|
B|--------10----10-------------10----10-----|
G|------9----------9---------9----------9---|
D|---10--------------10---10--------------0-|
A|-0--------------------0-------------------|
E|------------------------------------------|

e|---------10---------------10-------|
B|-------8----8-----------8----8-----|
G|-----7--------7-------7--------7---|
D|---9------------9---9------------0-|
A|-----------------------------------|
E|-0----------------0----------------|

e|-----------12-------------------13--------|
B|--------10----10-------------10----10-----|
G|------9----------9---------9----------9---|
D|---10--------------10---10--------------0-|
A|-0--------------------0-------------------|
E|------------------------------------------|

e|---------10--------10--|
B|-------8----8-------8--|
G|-----7--------7-----7--|
D|---9------------9---9--|
A|-----------------------|
E|-0---------------------|


Riff 2 (Acoustic, Solo Rhythm)
e|-------8-8-------------8-8-------------8-8-------------5-5-------|
B|-----6-----6---------6-----6---------5-----5---------5-----5-----|
G|---5---------5-----5---------5-----5---------5-----5---------5---|
D|-0-------------0-0-------------0-0-------------0-0-------------0-|
A|-----------------------------------------------------------------|
E|-----------------------------------------------------------------|

e|-------8-8-------------8-8-------------8-8-------------5-5-------|
B|-----6-----6---------6-----6---------5-----5---------5-----5-----|
G|---5---------5-----5---------5-----5---------5-----5---------5---|
D|-0-------------0-0-------------0-0-------------0-0-------------0-|
A|-----------------------------------------------------------------|
E|-----------------------------------------------------------------|

e|-------1-3-1-------------3---------------3---------------3-------|
B|-----3-------3---------3---3-----------1---1-----------3---3-----|
G|---2-----------0-----0-------0-------0-------0-------0-------0---|
D|-0-----------------0-----------0---2-----------2---0-----------0-|
A|-----------------1---------------3---------------2---------------|
E|-----------------------------------------------------------------|

e|-------1-3-1-------------3---------------3-------|
B|-----3-------3---------3---3-----------1---1-----|
G|---2-----------0-----0-------0-------0-------0---|
D|-0-----------------0-----------0---2-----------2-|
A|-----------------1---------------3---------------|
E|-------------------------------------------------|
   
[Drums enter]

Riff 3 (Acoustic, Solo Rhythm)
e|---------0---------------0---------------0---------------0-------|
B|-------0---0-----------0---0-----------0---0-----------0---0-----|
G|-----4-------4-------4-------4-------4-------4-------4-------4---|
D|---4-----------4---4-----------4---4-----------4---4-----------4-|
A|-2---------------0-------------------------------0---------------|
E|---------------------------------3-------------------------------|  
                                                   
e|---------0---------------0---------------0--------2--|              
B|-------0---0-----------0---0-----------0---0------2--|
G|-----4-------4-------4-------4-------4-------4----3--|
D|---4-----------4---4-----------4---4-----------4--4--| 
A|-2---------------0-----------------------------------|
E|---------------------------------3-------------------|


Solo (Acoustic)  *Edited by:  Ben Stembridge  :  stembbe@ala.net*
e|-8p7-------------8p7----------------0-3-1h3p1---0---------------------|
B|-----5---6-8----------------------1-----------1---1---1---------------|
G|-------------7-------5--7-5-4---2-------------------2---2---0---------|
D|----------------------------------------------------------2---2---2---|
A|----------------------------------------------------------------3---3-|
E|----------------------------------------------------------------------|

(Guitar 3 plays notes in () )
e|----------------3------8--------------------12-10--7~--|
B|---------------(3)---(10)-6---6/10--8----8--------(8~)-|
G|-------0-2-4-5---------------------(9)--(9)------------|
D|-0-2-3-------------------------------------------------|
A|-------------------------------------------------------|
E|-------------------------------------------------------|

  |-----| --> quick rake
e|-----10----10-12-13-10-9-10-12-13-10----12------|
B|---11---10---------------------------10------10-|
G|-12---------------------------------------------|
D|------------------------------------------------|
A|------------------------------------------------|
E|------------------------------------------------|
    * * 

e|-17-----15---14--------------------------|
B|---15----14----13------12----15----12-11-|
G|-----14----13----12-11----11----11-------|
D|-----------------------------------------|
A|-----------------------------------------|
E|-----------------------------------------|

e|--------------------------------------|
B|--------------------------------------|
G|-12-11-9-11--9------9-----------------|
D|-----------12--11-12---9-11-12-11-11~-|
A|--------------------------------------|
E|--------------------------------------|

e|-------------------------------------|
B|-------------------------------------|
G|------------------9---11---12---11---|
D|--9-------0--7--x---x----x----x----x-|
A|-----9~~-----------------------------|
E|-------------------------------------|

End solo


Riff 4 (Acoustic, listen for strumming patttern)
e|-5--5-5----8---8-8--10--1010--12--12-12------------(12-10--8)-|
B|-5--5-5----8---8-8---8---8-8--10--10-10--10--10-10--13-12-10--|
G|-5--5-5----9---9-9---9---9-9--11--11-11--10--10-10------------|
D|-7--7-7---10--1010--10--1010--12--12-12--10--10-10------------|
A|-0--0-0----0---0-0---0---0-0---0---0--0---0---0--0------------|
E|--------------------------------------------------------------|

e|-5--5-5----8---8-8--10--1010------------|
B|-5--5-5----8---8-8---8---8-8--1--1-1--3-|
G|-5--5-5----9---9-9---9---9-9--0--0-0--2-|
D|-7--7-7---10--1010--10--1010--2--2-2--0-|
A|-0--0-0----0---0-0---0---0-0------------|
E|----------------------------------------|



Play Riff 1   "It must be summer..."
Play Riff 2   "All the flowers..."

Riff 3a (Acoustic)
e|---------0---------------0---------------0---------------0-------|
B|-------0---0-----------0---0-----------0---0-----------0---0-----|
G|-----4-------4-------4-------4-------4-------4-------4-------4---|
D|---4-----------4---4-----------4---4-----------4---4-----------4-|
A|-2---------------0-------------------------------0---------------|
E|---------------------------------3-------------------------------|
  "...sand...."

e|---------0-----------------------------0--------------0--|
B|-------0---0---------6---------------0---0---------6--5--|
G|-----4-------4---------------------4-------4----------6--|
D|---4-----------4---7--------7----4-----------4---7----6--|
A|-2---------------5--------7----2---------------5------4--|
E|------------------------5--------------------------------|
         "It's all..."


Riff 4a (Acoustic, listen for strumming patttern)
e|-5--5-5----8---8-8--10--1010--12--12-12------------(12-10--8)-|
B|-5--5-5----8---8-8---8---8-8--10--10-10--10--10-10--13-12-10--|
G|-5--5-5----9---9-9---9---9-9--11--11-11--10--10-10------------|
D|-7--7-7---10--1010--10--1010--12--12-12--10--10-10------------|
A|-0--0-0----0---0-0---0---0-0---0---0--0---0---0--0------------|
E|--------------------------------------------------------------|

e|-5--5-5----8---8-8--10--1010---------------3--3-3--0-|
B|-5--5-5----8---8-8---8---8-8--1--1-1--3----3--3-3--1-|
G|-5--5-5----9---9-9---9---9-9--0--0-0--2----0--0-0--2-|
D|-7--7-7---10--1010--10--1010--2--2-2--0----0--0-0--2-|
A|-0--0-0----0---0-0---0---0-0---------------2--2-2--0-|
E|-------------------------------------------3--3-3----|

End of acoustic intro.


Riff 5 (Distortion)
Guitar 1
e|-----------------------------------------|
B|-----------------------------------------|
G|-----------------------------------------|
D|-----------------------------------------|
A|-0-0-0-0-0-0-0-0-0-0-0-0-0-0-0-0-0-0-0-0-|
E|-----------------------------------------|
   * * * * * * * * * * * * * * * * * * * * 

Guitar 2
e|-------------------------------|
B|-------------------------------|
G|--12-----11-----10------9------|
D|--10------9------8------7------|
A|-------------------------------|
E|-------------------------------|

e|-----------------------------------------|
B|-------------------------3---------------|
G|--12-----11-----10-------0-----3~~-------|
D|--10------9------8-------0---------------|
A|----------------------xx-x-----------3-2-|
E|----------------------xx-3---------------|


RIFF 6 (Solo Rhythm)                    x2
e|---------------------------------------|
B|---------------------------------------|
G|---------------------------------------|
D|------3------3----3--------------------|
A|-------------------------4------4----4-|
E|-1111---1111---11---1111---1111---11---|
   ****   ****   **   ****   ****   ** 
                                        x2
e|---------------------------------------|
B|---------------------------------------|
G|---------------------------------------|
D|------6------6----6--------------------|
A|-------------------------7------7----7-|
E|-4444---4444---44---4444---4444---44---|
   ****   ****   **   ****   ****   **


Solo
e|------------------------------|
B|------------------------------|
G|-13--12--9--10----------------|
D|----------------10--11--8-10--|
A|-11--10--7---8----------------|
E|-----------------8---9--6--8--|

e|----------------------------|
B|---------------------13-12--|
G|-13--12--8--9--8--9---------|
D|---------------------10--9--|
A|-11--10--6--7--6--7---------|
E|----------------------------|

End Solo

Riff 7
e|----------------|
B|--3---3---------|
G|--0---0---------|
D|--0---0---------|
A|--x---x---------|
E|--3---3---0--3~-|


Riff 8
e|----------------------------------------------------|
B|----------------------------------------------------|
G|----------------------------------------------------|
D|---------4-5----------7-5----------4-5------2-----2-|
A|-2-2-2-2-2-3--2-2-2-2-5-3--2-2-2-2-2-3--0-0-0-0-0-0-|
E|----------------------------------------------------|
   * * * *      * * * *      * * * *      * *   * *  
           "My bed is..."
e|---------------------------------------------|
B|---------------------------------------------|
G|---------------------------------------------|
D|---------4-5----------7-5----------4-5-------|
A|-2-2-2-2-2-3--2-2-2-2-5-3--2-2-2-2-2-3--5--4-|
E|----------------------------------------3--2-|
   * * * *      * * * *      * * * *   
   "I am in total darkness..."
e|-----------------------------------------------------|
B|-----------------------------------------------------|
G|-----------------------------------------------------|
D|---------7-8----------10-8----------7-8------5-----5-|
A|-5-5-5-5-5-6--5-5-5-5--8-6--5-5-5-5-5-6--3-3-3-3-3-3-|
E|-----------------------------------------------------|
   * * * *      * * * *       * * * *      * *   * * 
     "I can feel..."
e|-----------------------------------------------|
B|-----------------------------------------------|
G|-----------------------------------------------|
D|---------7-8----------10-8----------7-8--------|
A|-5-5-5-5-5-6--5-5-5-5--8-6--5-5-5-5-5-6---8--7-|
E|------------------------------------------6--5-|
   * * * *      * * * *       * * * * 
   "I know it's not a dream..."


Riff 9 (Harmony guitar in () )
e|----------------------------|
B|----------------------------|
G|----------------------------|
D|-------2-3-2--------5-3-2-3-|
A|-------2-3-2--------5-3-2-3-|
E|-0-0-0--------0-0-0---------|
   * * *        * * *         
             "Someone's..."
e|--------------------------------------|
B|--------------------------------------|
G|--------------(/2~-0h2p0--------------|
D|-------2-3-2---/3~-2h3p2-3-2-3-2-0----|
A|-------2-3-2-------------5-3-5-3-2-2)-|
E|-0-0-0-----------------------------3--|
   * * *                  * * * * * *
                   "...standing at the end..."
e|----------------------------|
B|----------------------------|
G|----------------------------|
D|-------2-3-2--------5-3-2-3-|
A|-------2-3-2--------5-3-2-3-|
E|-0-0-0--------0-0-0---------|
   * * *        * * *         
e|------------------------------------|
B|------------------------------------|
G|------------------------------------|
D|-------2-3-2--/3~-2h3p2-------------|
A|-------2-3-2------------5-3-5-3-2---|
E|-0-0-0----------------------------3-|
   * * *                  * * * * * *
e|--------------------------------------|
B|--------------------------------------|
G|--------------(/2~-0h2p0--------------|
D|-------2-3-2---/3~-2h3p2-3-2-3-2-0----|
A|-------2-3-2-------------5-3-5-3-2-2)-|
E|-0-0-0-----------------------------3--|
   * * *                  * * * * * *


Riff 10                  
Guitar 1                                                     x2
e|------------------------------------------------------------|
B|-------5-------------5--------------------------------------|
G|-----6---6---------6---6------------------4-3---------------|
D|---6-------6-----6-------6--------5-4-------------5-4-2-0---|
A|-4-----------4-0-----------0------------------------------1-|
E|------------------------------0-0-----0-0-----0-0-----------|
                                * *     * *     * * 
      "Must be..."
e|---------------------------------------------------------------|
B|---------------------------------------------------------------|
G|-------------4-3-----------------------------7-6---------------|
D|-----5-4-------------5-4-2-0---------8-7-------------8-7-5-----|
A|-2-2-----2-2-----2-2---------1---5-5-----5-5-----5-5-------8-4-|
E|---------------------------------------------------------------|
   * *     * *     * *             * *     * *     * * 

Guitar 2                                                     x2
e|------------------------------------------------------------|
B|-------5-------------5--------------------5-4---------------|
G|-----6---6---------6---6----------3-2-------------3-2-0-----|
D|---6-------6-----6-------6------------------------------3-0-|
A|-4-----------4-0-----------0--------------------------------|
E|------------------------------0-0-----0-0-----0-0-----------|
                                * *     * *     * * 
e|---------------------------------------------------------------|
B|-------------5-4-----------------------------8-7---------------|
G|-----3-2-------------3-2-0-----------7-6-------------7-6-------|
D|---------------------------3-0---------------------------8-7---|
A|-2-2-----2-2-----2-2-------------5-5-----5-5-----5-5---------7-|
E|---------------------------------------------------------------|
   * *     * *     * *             * *     * *     * * 



Riff 6a (Solo Rhythm)                   x2
e|---------------------------------------|
B|---------------------------------------|
G|---------------------------------------|
D|------3------3----3--------------------|
A|-------------------------4------4----4-|
E|-1111---1111---11---1111---1111---11---|
   ****   ****   **   ****   ****   ** 
                                        x2
e|---------------------------------------|
B|---------------------------------------|
G|---------------------------------------|
D|------6------6----6--------------------|
A|-------------------------7------7----7-|
E|-4444---4444---44---4444---4444---44---|
   ****   ****   **   ****   ****   **
                                        x2
e|---------------------------------------|
B|---------------------------------------|
G|---------------------------------------|
D|------3------3----3--------------------|
A|-------------------------4------4----4-|
E|-1111---1111---11---1111---1111---11---|
   ****   ****   **   ****   ****   ** 


Play Riff 7
Play Riff 8   "Now I see..."
Play Riff 9   "King beware..."
Play Riff 10  "Must be a visit..."


Riff 11 
e|---------------------------------------------------------|
B|--------10-----11---------10-----8---------10-----11--10-|
G|---------9-----10----------9-----7----------9-----10---9-|
D|--------10-----12---------10-----9---------10-----12--10-|
A|-0-0-00----0-0-----0-0-00----0-0----0-0-00----0-0--------|
E|---------------------------------------------------------|
   * * **    * *     * * **    * *    * * **    * *
               "Just beware..."


Riff 12 (Solo Rhythm)
e|-------------------------------------------------|
B|-------------------------------------------------|
G|-------------------------------------------------|
D|-7-----7-----7\5-5\3---3-----3--------------5--7-|
A|-5-5-5-5-5-5-5\3-3\1-1-1-1-1-1-------1--00--3--4-|
E|-------------------------------00-3-(3)----------|
     * *   * *         *   * *   **       **

Riff 11a (Solo Rhythm)              x2
e|-----------------------------------|
B|--------10-----11---------10-----8-|
G|---------9-----10----------9-----7-|
D|--------10-----12---------10-----9-|
A|-0-0-00----0-0-----0-0-00----0-0---|
E|-----------------------------------|
   * * **    * *     * * **    * *


Play Riff 12   Solo Rhythm
Play Riff 11a  Solo Rhythm
Play Riff 10   "Must be a visit..."


Ending (fade out):
Guitar 1
e|-----------------------------------------|
B|-----------------------------------------|
G|-----------------------------------------|
D|-----------------------------------------|
A|-0-0-0-0-0-0-0-0-0-0-0-0-0-0-0-0-0-0-0-0-|
E|-----------------------------------------|
   * * * * * * * * * * * * * * * * * * * * 
    "I will send you a dream..."

Guitar 2
e|-----------12-------------------13--------|
B|--------10----10-------------10----10-----|
G|------9----------9---------9----------9---|
D|---10--------------10---10--------------0-|
A|-0--------------------0-------------------|
E|------------------------------------------|

e|---------10---------------10-------|
B|-------8----8-----------8----8-----|
G|-----7--------7-------7--------7---|
D|---9------------9---9------------0-|
A|-----------------------------------|
E|-0----------------0----------------|

-------------------------------------------------------

5. THE WEDDING DREAM

Tuning: Standard


Riff 1              x2
e|-------------------|
B|-------------------|
G|-------------------|
D|-5---------5-------|
A|-3----2----3----2--|
E|------0---------0--|
  "My mother is entering..."  


Play Riff 1   "Suddenly there is..."

Lead into next section:
e|--------|
B|--------|
G|--------|
D|--------|
A|--5--7--|
E|--3--5--|


Riff 2
e|---------------------------------------------------|
B|---------------------------------------------------|
G|---------------------------------------------------|
D|-------------------2p0-----------------------------|
A|-2-2-2-2-2-2-3-2-0-----3-2-2-2-2-2-2-2-3-0-0-0-0-0-|
E|---------------------------------------------------|
   * * * * * * * * *     * * * * * * * * * * * * * * 
e|----------------------------------------------|
B|----------------------------------------------|
G|----------------------------------------------|
D|-------------------2p0------------------------|
A|-2-2-2-2-2-2-3-2-0-----3-2-2-2-2-2-2-2---7--5-|
E|-----------------------------------------5--3-|
   * * * * * * * * *     * * * * * * * *  
e|---------------------------------------------------|
B|---------------------------------------------------|
G|---------------------------------------------------|
D|---------------------------------------------------|
A|-------------------2p0-----------------------------|
E|-2-2-2-2-2-2-3-2-0-----3-2-2-2-2-2-2-2-3-0-0-0-0-0-|
   * * * * * * * * *     * * * * * * * * * * * * * * 
e|---------------------------------------------|
B|---------------------------------------------|
G|---------------------------------------------|
D|---------------------------------------------|
A|-------------------2p0------------------5--7-|
E|-2-2-2-2-2-2-3-2-0-----3-2-2-2-2-2-2-2--3--5-|
   * * * * * * * * *     * * * * * * * *  


Riff 3
Guitar 1                           x2
e|----------------------------------|
B|----------------------------------|
G|----------------------------------|
D|--7-------10--------9--------8----|
A|--5--------8--------7--------6----|
E|--5--------8--------7--------6----|

Guitar 2
e|----------------------------------|
B|----------------------------------|
G|----------------------------------|
D|--3--------6--------5--------4----|
A|----------------------------------|
E|----------------------------------|

e|----------------------------------|
B|----------------------------------|
G|--5--------8--------7--------6----|
D|----------------------------------|
A|----------------------------------|
E|----------------------------------|


Riff 4
e|-----------------------------------|
B|-----------------------------------|
G|-----------------------------------|
D|-------------------5--------4----2-|
A|-------------------3--------2----0-|
E|-2-2-2-2-2-2-2-2-2----2-2-2----2---|
   * * * * * * * * *    * * *    *
   "Ah, now what have I..."
e|-----------------------------------|
B|-----------------------------------|
G|-----------------------------------|
D|-------------------5--------4------|
A|-------------------3--------2--2-3-|
E|-2-2-2-2-2-2-2-2-2----2-2-2----0-1-|
   * * * * * * * * *    * * *  
   "...done..."
e|------------------------------------|
B|------------------------------------|
G|---------------------------------2~-|
D|-------------------5--------4----a--|
A|-------------------3--------2-------|
E|-2-2-2-2-2-2-2-2-2----2-2-2----2----|
   * * * * * * * * *    * * *    *
   "My mother's on the floor..."
e|-----------------------------------|
B|-----------------------------------|
G|-----------------------------------|
D|-------------------5--------4------|
A|-------------------3--------2--2-3-|
E|-2-2-2-2-2-2-2-2-2----2-2-2----0-1-|
   * * * * * * * * *    * * *  
   "...and the Doctor's gone..."


Riff 5
e|-----------------------------------|
B|-----------------------------------|
G|-----------------------------------|
D|-------------------7--------6----4-|
A|-------------------5--------4----2-|
E|-4-4-4-4-4-4-4-4-4----4-4-4----4---|
   * * * * * * * * *    * * *    *
   "Oh, everything is..."
e|-----------------------------------|
B|-----------------------------------|
G|-----------------------------------|
D|-------------------7--------6------|
A|-------------------5--------4--7-6-|
E|-4-4-4-4-4-4-4-4-4----4-4-4----5-4-|
   * * * * * * * * *    * * *  
   "...wrong..."


Riff 4a
e|-----------------------------------|
B|-----------------------------------|
G|-----------------------------------|
D|-------------------5--------4----2-|
A|-------------------3--------2----0-|
E|-2-2-2-2-2-2-2-2-2----2-2-2----2---|
   * * * * * * * * *    * * *    *
   "And as I keep the axe..."
e|-----------------------------------|
B|-----------------------------------|
G|-----------------------------------|
D|-------------------5--------4------|
A|-------------------3--------2--2-3-|
E|-2-2-2-2-2-2-2-2-2----2-2-2----0-1-|
   * * * * * * * * *    * * *  
   "...I wonder what's to come..."
 

Riff 3a                            x2
e|----------------------------------|
B|----------------------------------|
G|----------------------------------|
D|--7-------10--------9--------8----|
A|--5--------8--------7--------6----|
E|--5--------8--------7--------6----|
   "I'm caught within a dream..."


Riff 6
e|--------------------------------------|
B|--------------------------------------|
G|-----7--6--------------9--8-----------|
D|-5---5--5---8--7-8-7---7--7--10--9-10-|
A|-5--(5)(5)--5--5-5-7--(7)(7)--7--7--7-|
E|--------------------------------------|
   "...dream, the wedding dream..."
e|-------------------|
B|-------------------|
G|-----7--6----------|
D|-5---5--5---8--7-8-|
A|-5--(5)(5)--5--5-5-|
E|-------------------|



Riff 7 (Play 2x)
e|--------------------------------------|
B|--------------------------------------|
G|--------------------------------------|
D|------------7--9/11-9\7------------7--|
A|--9--7--9---5--7/-9-7\5--9--7--9---5--|
E|--7--5--7----------------7--5--7---5--|
    *  *  *                *  *  * 
  "Now everything turns to darkness..."
e|------------------------------------|
B|------------------------------------|
G|------------------------------------|
D|------------7--9/11-9\7----------9--|
A|--9--7--9---5--7/-9-7\5--9--7--9-7--|
E|--7--5--7----------------7--5--7-7--|
    *  *  *                *  *  *
  "Deep within I feel..."
        

Lead into next section:
e|-----|
B|-----|
G|-----|
D|--7--|
A|--5--|
E|-----|
 "...the dream...NO!"  


Riff 8
e|--------------------------------------------------------|
B|--------------------------------------------------------|
G|--------------------------------------------------------|
D|---------------------------------------------------9--7-|
A|-7-9-9--9--9--9-9-12-12--12--12--7-7-9-9--9--9--9--7--5-|
E|-5-7-7--7--7--7-7-10-10--10--10--5-5-7-7--7--7--7--7--5-|
   * * *  *  *  * *  *  *   *   *  * * * *  *  *  * 
e|--------------------------------------------------------|
B|--------------------------------------------------------|
G|--------------------------------------------------------|
D|---------------------------------------------------7--9-|
A|-7-9-9--9--9--9-9-12-12--12--12--7-7-9-9--9--9--9--5--7-|
E|-5-7-7--7--7--7-7-10-10--10--10--5-5-7-7--7--7--7--5--7-|
   * * *  *  *  * *  *  *   *   *  * * * *  *  *  * 

Riff 9 (Solo Rhythm)
e|--------------------------------------------------|
B|--------------------------------------------------|
G|--------------------------------------------------|
D|-------------------------------------------12--10-|
A|-3-555555555555-8888888888-33-55555555555--10---8-|
E|-------------------------------------------10---8-|
   * ************ ********** ** ***********
e|--------------------------------------------------|
B|--------------------------------------------------|
G|--------------------------------------------------|
D|-------------------------------------------10--12-|
A|-3-555555555555-8888888888-33-55555555555---8--10-|
E|--------------------------------------------8--10-|
   * ************ ********** ** ***********

Riff 10 (Solo Rhythm)
e|--------------------------------------------------------|
B|--------------------------------------------------------|
G|--------------------------------------------------------|
D|---------------------------------------------------7--5-|
A|-5-7-7--7--7--7-7-10-10--10--10--5-5-7-7--7--7--7--5--3-|
E|-3-5-5--5--5--5-5--8--8---8---8--3-3-5-5--5--5--5--5--3-|
   * * *  *  *  * *  *  *   *   *  * * * *  *  *  *
e|----------------------------------------------------|
B|----------------------------------------------------|
G|----------------------------------------------------|
D|-----------------------------------------------3--5-|
A|-3-5-5--5--5--5-5-8-8--8--8--3-3-5-5--5--5--5--1--3-|
E|-1-3-3--3--3--3-3-6-6--6--6--1-1-3-3--3--3--3--1--3-|
   * * *  *  *  * * * *  *  *  * * * *  *  *  *


Play Riff 3
Play Riff 4    "Get away from him mother..."
Play Riff 5    "Take a look..."
Play Riff 4a   "He's got the key..."
Play Riff 3a   "I'm caught within..."
Play Riff 6    "...dream, the wedding dream..."


Riff 11 (Solo Rhythm)
e|-----------------------------------|
B|-----------------------------------|
G|-----------------------------------|
D|-------------------10-------9----7-|  ----|
A|--------------------8-------7----5-|      |
E|-7-7-7-7-7-7-7-7-7----7-7-7----7---|      |
   * * * * * * * * *    * * *    *          |--- Play 2x
e|-----------------------------------|      |
B|-----------------------------------|      |
G|-----------------------------------|  ----|
D|-------------------10-------9------|
A|--------------------8-------7--7-8-|
E|-7-7-7-7-7-7-7-7-7----7-7-7----5-6-|
   * * * * * * * * *    * * *   

e|-----------------------------------|
B|-----------------------------------|
G|-----------------------------------|
D|-------------------5--------4----2-|
A|-------------------3--------2----0-|
E|-2-2-2-2-2-2-2-2-2----2-2-2----2---|
   * * * * * * * * *    * * *    *
e|-----------------------------------|
B|-----------------------------------|
G|-----------------------------------|
D|-------------------5--------4------|
A|-------------------3--------2--2-3-|
E|-2-2-2-2-2-2-2-2-2----2-2-2----0-1-|
   * * * * * * * * *    * * *  
e|-----------------------------------|
B|-----------------------------------|
G|-----------------------------------|
D|-------------------5--------4----2-|
A|-------------------3--------2----0-|
E|-2-2-2-2-2-2-2-2-2----2-2-2----2---|
   * * * * * * * * *    * * *    *
e|------------------------------|
B|------------------------------|
G|------------------------------|
D|-------------------5--------4-|
A|-------------------3--------2-|
E|-2-2-2-2-2-2-2-2-2----2-2-2---|
   * * * * * * * * *    * * *  


Play Riff 3   Solo Rhythm
Play Riff 6   "...dream, the wedding dream..."
Play Riff 7   "Now everything turns..."


Lead into next section:
e|--------------|
B|--------------|
G|--------------|
D|--7-7----7-7--|
A|--5-5----5-5--|
E|---------5-5--|
 "...and it's me!" 


Riff 1a               x2
e|---------------------|
B|---------------------|
G|---------------------|
D|-5-----------5-------|
A|-3----2-2----3----2--|
E|------0-0---------0--|
  "At sunrise..."


Ending:
Guitar 1
e|------------------------------|
B|------------------------------|
G|------------------------------|
D|-8----7----6----5-5----4----3-|
A|-6----5----4----3-3----2----1-|
E|-6----5----4----3-3----2----1-|

Guitar 2
e|------------------------------|
B|------------------------------|
G|-8---10----9----8-8----7----6-|
D|------------------------------|
A|-6----8----7----6-6----5----4-|
E|------------------------------|

----------------------------------------------------

6. 'AMON' BELONGS TO 'THEM'
Tuning: Standard

Riff 1 
e|------------------------------------------|
B|------------------------------------------|
G|-----------------6~-----------------------|
D|-----------------a------------------------|
A|---------5---4~-------------5---4--2-2--2-|
E|-0-2-2-2---2--------0-2-2-2---2----0-0--0-|
   * * * *   *        * * * *   *

(Guitar 2 plays notes on top)
e|-------------------------------------------------|
B|-------------------------------------------------|
G|----------------------------------------7-6------|
D|--------------------------------------4-----7-4~-|
A|---------5---4~-------------5---4---7------------|
E|-0-2-2-2---2--------0-2-2-2---2------------------|
   * * * *   *        * * * *   * 


Riff 2
Guitar 1
e|-------------------------------------------|
B|-------------------------------------------|
G|-------------------------------------------|
D|-------------4~-----------------4~--2-2--2-|
A|-0-2-2-2-5-2--------0-2-2-2-5-2-----0-0--0-|
E|-------------------------------------------|
   * * * * * *        * * * * * * 
Guitar 2
e|-------------------------------------------|
B|---------7------------------7--------------|
G|-6-7-7-7---7-7~-----6-7-7-7---7-7~--6-6--6-|
D|-------------------------------------------|
A|-------------------------------------------|
E|-------------------------------------------|


Riff 3
e|-------------------------------------------|
B|-------------------------------------------|
G|-------------------------------------------|
D|-------------------------------------------|
A|---------7---6--------------7---6---4-4--4-|
E|-2-4-4-4---4--------2-4-4-4---4-----2-2--2-|
   * * * *   *        * * * *   *
              "Today my Mother..."

Riff 4
e|-------------------------------|
B|-------------------------------|
G|-------------------------------|
D|--8----9--11-------8----9--11--|
A|--6----7---9-------6----7---9--|
E|--6----7---9-------6----7---9--|
    "Oh, it's all part of an act..."


Play Riff 3   "There's someone ringing..."


Riff 5
e|----------------------------------------------|
B|----------------------------------------------|
G|----------------------------------------------|
D|--8---------------------8--6--9--8--11-9-8----|
A|--6----6-6-6-6-6-6-6-6--6--4--7--6---------11-|
E|----------------------------------------------|
         * * * * * * * *               * * *  * 
   "Oh King..."


Riff 6
e|--1--3---------------------3-----------------------|
B|--3--3----6--5----(5)\--3--3-----------------------|
G|--2--3----5--5----(5)\--2--3-----------------------|
D|--0--0----5--5----(5)\--0--0----------3------------|
A|---------------------------------------------------|
E|--------------------------------3-5-6---5--3~----1-|
                                  * *
   "Ma, you don't understand..."
e|--1--3---------------------3-----------------------|
B|--3--3----6--5----(5)\--3--3-----------------------|
G|--2--3----5--5----(5)\--2--3-----------------------|
D|--0--0----5--5----(5)\--0--0----------3------------|
A|---------------------------------------------------|
E|--------------------------------3-5-6---5--3~----1-|
                                  * *
   "There's no way..."


Riff 7
e|--------------------------|
B|--------------------------|
G|--------------------------|
D|--------------------------|
A|-7-8-7-8-7-8-7-8-7-8-7-8--|
E|-5-6-5-6-5-6-5-6-5-6-5-6--|
   * * * * * * * * * * * * 
  "...Them!"


Play Riff 2
Play Riff 3   "You go ahead..."
Play Riff 4   "Come on mother..."


Riff 8  
e|-------------------------------|
B|-------------------------------|
G|-------------------------------|
D|-------------------------------|
A|-----------------------6-----5-|
E|-2/4-4-4-4-4-4-4-7-4-4---4-4---|
       * * * * * * * * * * * *
e|-------------------------------|
B|-------------------------------|
G|-------------------------------|
D|-------------------------------|
A|-----------------------6-----5-|
E|-2/4-4-4-4-4-4-4-7-4-4---4-4---|
       * * * * * * * * * * * *

Riff 9 (Solo Rhythm)             x4
e|--------------------------------|
B|--------------------------------|
G|--------------------------------|
D|--------------------------------|
A|------------------------9-----8-|
E|-5/7-7-7-7-7-7-7-10-7-7---7-7---|
       * * * * * *  * * * * * *  
e|--------------------------|
B|--------------------------|
G|--------------------------|
D|-------------------5---7--|
A|--------9-----8----3---5--|
E|-10-7-7---7-7------3---5--|
    * * * * * * * 


Riff 10 (Solo Rhythm)
e|------------------------------|
B|------------------------------|
G|-------------7--------------7-|
D|-------------5--------------5-|
A|------------------------------|
E|-0-0-0-0-0-0----0-0-0-0-0-0---|
   * * * * * *    * * * * * * 
e|----------------------------|
B|----------------------------|
G|-------------7-----------8--|
D|-------------5--------7--6--|
A|------------------8---5-----|
E|-0-0-0-0-0-0----0-6-0-------|
   * * * * * *    *   * 


Riff 8a (Solo Rhyhm)            x4
e|-------------------------------|
B|-------------------------------|
G|-------------------------------|
D|-------------------------------|
A|-----------------------6-----5-|
E|-2/4-4-4-4-4-4-4-7-4-4---4-4---|
       * * * * * * * * * * * *
e|---------------|
B|---------------|
G|---------------|
D|---------------|
A|-------6-----5-|
E|-7-4-4---4-4---|
   * * * * * *


Riff 11 (Solo Rhythm)
e|--------------------|
B|--------------------|
G|--7-----------------|
D|--7-----------------|
A|--5-----------------|
E|-------6~---7~---6~-|


Play Riff 5   "...King please let him in..."
Play Riff 6   "Ma, you don't understand..."
Play Riff 2
Play Riff 3   "Now let me tell you..."
Play Riff 2   Solo Rhythm
Play Riff 3   "You must never ever..."
Play Riff 4   "Oh I feel the needle..."

------------------------------------------------------------

7. SOMETHING WIERD

Tuning: Standard

NOTE:  As you know, this song has weird effects, so everything is
       arranged for guitar.

Riff 1
e|------------------------------------|
B|------------------------------------|
G|-10---8---6---5---3-----------------|
D|----------------------6---5--2--3---|
A|--8---6---4---3---1-----------------|
E|----------------------4---3--0--1---|
                                        
Riff 2
e|------------------------------------------|
B|------------------------------------------|
G|-12-1212-13-12----12--10--1010-12-10---10-|
D|---------------15--------------------13---|
A|------------------------------------------|
E|------------------------------------------|

e|--------------------|
B|--------------------|
G|-8-88-10-8-7-8-5~~--|
D|--------------------|
A|--------------------|
E|--------------------|

e|-8--8-10-11--10-8-7----|
B|---------------------8-|
G|-----------------------|
D|-----------------------|
A|-----------------------|
E|-----------------------|

e|---8-8-----10-10-----11-11-----|
B|-8-----8-8-------8-8-------8-9-|
G|-------------------------------|
D|-------------------------------|
A|-------------------------------|
E|-------------------------------|

e|-8----------11-10-8-7---8-10-11-15-|
B|-----------------------------------|
G|----10-8-8-------------------------|
D|-----------------------------------|
A|-----------------------------------|
E|-----------------------------------|

Riff 3
e|------------------------|
B|------------------------|
G|------------7----8----5-|
D|--5----3----------------|
A|------------5----6----3-|
E|--3----1----------------|



Riff 4 (acoustic)  x2
e|----------0-------|----------0----------------0-------|
B|--------0---0-----|--------0---0------------0---0-----|
G|------6-------6---|------6-------6--------6-------6---|
D|----6-----------6-|----6-----------6----6-----------6-|
A|--4---------------|--0--------------------------------|
E|------------------|-------------------7---------------|
                                       
                   x2
e|----------0-------|----------0----------|
B|--------0---0-----|--------0---0--------|
G|------6-------6---|------6-------6------|
D|----6-----------6-|----6-----------6----|
A|--4---------------|--0------------------|
E|------------------|---------------------|

Solo over riff 4

Guitar 1 starts with this
e|---------------------|
B|-17~--16--15/21~~----|
G|---------------------|
D|---------------------|
A|---------------------|
E|---------------------|

Then Guitar 2 takes over with this
e|----------------------------------------------------------|
B|----------------------12-16--14---[reverb]----------------|
G|--------------9/13~~------------13----------12---[reverb]-|
D|-----------------------------------------------11---------|
A|----------------------------------------------------------|
E|----------------------------------------------------------|

e|---------------------------|
B|---------------------------|
G|---------------------------|
D|-11-9--11-7--6-7-7-6-7-7-6-|
A|---------------------------|
E|---------------------------|

e|------------------|
B|------------------|
G|------------------|
D|-11 [let ring]----|
A|------------------|
E|------------------|
 
Last three notes echo out
e|------------------------------------|
B|-14--16-14-17-16-19-17-16--19-17-16-|
G|------------------------------------|
D|------------------------------------|
A|------------------------------------|
E|------------------------------------|

End solo

Riff 5
e|-------------------------------|
B|-------------------------------|
G|-3-------5--------------5---7--|
D|-----3----------5---8----------|
A|-1-------3--------------3---5--|
E|-----1----------3---6----------|

Riff 6

Guitar 1
e|-------------------------------------------------|
B|-13-------13-15-------15-16-------16-15-------15-|
G|----12-12-------12-12-------12-12-------12-12----|
D|-------------------------------------------------|
A|-------------------------------------------------|
E|-------------------------------------------------|

Guitar 2 (slightly palm muted)
e|-------------------------------------------------|
B|-------------------------------------------------|
G|-0-0-0-0-0-0-0-0-0-0-0-0-0-0-0-0-0-0-0-0-0-0-0-0-|
D|-------------------------------------------------|
A|-------------------------------------------------|
E|-------------------------------------------------|
   
Ending  (random notes.......may tab it later)
e|------------------------------------------------|
B|------------------------------------------------|
G|------------------------------------------------|
D|------------------------------------------------|
A|------------------------------------------------|
E|------------------------------------------------|

---------------------------------------------------------------

8. VICTIMIZED

Tuning: Standard

Riff 1
Guitar 1
e|-----------------------------------------------|
B|-----------------------------------------------|
G|-----------------------------------------------|
D|--------12\11/12--9\7/9---------12\11/12--5--7-|
A|--------10\-9/10--7\5/7---------10\-9/10--3--5-|
E|-0--0-0------------------0--0-0----------------|
   *  * *                  *  * *  
e|------------------------------------------------|
B|------------------------------------------------|
G|------------------------------------------------|
D|--------12\11/12--9\7/9---------12\11/12--14--7-|
A|--------10\-9/10--7\5/7---------10\-9/10--12--5-|
E|-0--0-0------------------0--0-0-----------------|
   *  * *                  *  * *                                         

Guitar 2 (Comes in the second time)
e|------------------------------------------|
B|------------------------------------------|
G|------------------------------------------|
D|---------9\7/9--5\4/5----------9\7/9--2-4-|
A|------------------------------------------|
E|-0--0-0----------------0--0-0-------------|
   *  * *                *  * *
e|-------------------------------------------|
B|-------------------------------------------|
G|-------------------------------------------|
D|---------9\7/9--5\4/5----------9\7/9--10-4-|
A|-------------------------------------------|
E|-0--0-0----------------0--0-0--------------|
   *  * *                *  * *


Riff 2
e|------------------------------------------|
B|------------------------------------------|
G|-------6---------6----------6---------6---|
D|-----4----4--------4------4----4--------4-|
A|-0h4--------4--4------4h5--------5--5-----|
E|------------------------------------------|

e|------------------------------------------|
B|------------------------------------------|
G|-------6---------6------------------------|
D|-----4----4--------4----------------------|
A|-0h4--------4--4------2b3r2-0--3~-2~------|
E|----------------------a--------------3-2~-|

 
Play Riff 1

Riff 3
e|-------------------------------|
B|-------------------------------|
G|-------------------------------|
D|---------4-----4-----4---4---5-|
A|-------------------------------|
E|-2-222-2---2-2---2-2---2---2---|
   * *** *   * *   * *   *   * 
  "A little later in the day..."
e|----------------------------|
B|----------------------------|
G|----------------------------|
D|---------4-----4-----5----3-|
A|--------------------------1-|
E|-2-222-2---2-2---2-2---2--1-|
   * *** *   * *   * *   *    
  "Mother and the Doctor went away..."
e|-------------------------------|
B|-------------------------------|
G|-------------------------------|
D|---------4-----4-----4---4---5-|
A|-------------------------------|
E|-2-222-2---2-2---2-2---2---2---|
   * *** *   * *   * *   *   * 
  "They left me lying on the floor..."

Ending lead to Riff 3
e|------|
B|------|
G|------|
e|------|
B|------|
G|-X\\--|



Riff 4 
e|-------------------------------|
B|-------------------------------|
G|-------------------------------|
D|---------9-----9-----9---9---8-| -----|
A|-------------------------------|      |
E|-7-777-7---7-7---7-7---7---7---|      |
   * *** *   * *   * *   *   *          |
  "Heading for the local church...      |--- Play 2x
e|----------------------------|         |
B|----------------------------|         |
G|----------------------------|         |
D|---------9----9-------------|  -------|
A|---------------------9---10-|
E|-7-777-7---7-7---7-7---7--7-|
   * *** *   * *   * *   *  
  "...not a trace of guilt in their eyes..."


Ending to Riff 4
Guitar 1
e|----------------------------------------------|
B|----------------------------------------------|
G|------------------------------4---------------|
D|---------9-----9-----------------7-5-4--------|
A|---------------------9---10\-----------7-6----|
E|-7-777-7---7-7---7-7---7-------------------7\-|
   * *** *   * *   * *   *
  "And so easy to convert..."

Guitar 2
e|----------------------------------------------|
B|----------------------------------------------|
G|------------------------------7--5-4----------|
D|---------9-----9---------------------7-5-4----|
A|---------------------9---10\---------------5\-|
E|-7-777-7---7-7---7-7---7----------------------|
   * *** *   * *   * *   *



Riff 5 
e|----0-----------0-----------(12t10-12t8-12t6)--| <--harmony gtr.
B|------0-----------0----------------------------|
G|--------2----3------3--------12t10-12t9-12t7---|
D|-2-----------1---------------------------------|
A|-0---------------------------------------------|
E|-----------------------------------------------|
   "Ah, conspiracy..."

e|----0--------|
B|------0------|
G|--------2----|
D|-2-----------|
A|-0-----------|
E|-------------|
  "Ah..."


Riff 6
e|---------------------4-------|
B|-----------------------4-----|
G|-----------------------------|
D|-7--6--9--7--6-7--6-------6--|
A|-5--5--5--5--5-5--4-------4--|
E|------------------4-------4--|
  "I am being victimized again..."

Play Riff 3

Ending lead to Riff 3
e|----------------------------------|
B|---------14~-----11--10--13-------|
G|-11~-------------------------11---|
e|----------------------------------|
B|----------------------------------|
G|----------------------------------|



Riff 4 
e|-------------------------------|
B|-------------------------------|
G|-------------------------------|
D|---------9-----9-----9---9---8-| -----|
A|-------------------------------|      |
E|-7-777-7---7-7---7-7---7---7---|      |
   * *** *   * *   * *   *   *          |
  "Knocking at the preacher's door..."  |--- Play 2x
e|----------------------------|         |
B|----------------------------|         |
G|----------------------------|         |
D|---------9----9-------------|  -------|
A|---------------------9---10-|
E|-7-777-7---7-7---7-7---7----|
   * *** *   * *   * *   *  
  "...none of them..."


Ending to Riff 4
Guitar 1
e|----------------------------------------------|
B|----------------------------------------------|
G|------------------------------4---------------|
D|---------9-----9-----------------7-5-4--------|
A|---------------------9---10\-----------7-6----|
E|-7-777-7---7-7---7-7---7-------------------7\-|
   * *** *   * *   * *   *
  "And so easy to convert..."

Guitar 2
e|----------------------------------------------|
B|----------------------------------------------|
G|------------------------------7--5-4----------|
D|---------9-----9---------------------7-5-4----|
A|---------------------9---10\---------------5\-|
E|-7-777-7---7-7---7-7---7----------------------|
   * *** *   * *   * *   *


Riff 7
e|----------------------------------|
B|----------------------------------|
G|----7-----9----7-----7-----9--8---|
D|-6--5--6--7--6-5--6--5--6--7--6-9-|
A|-4-----4-----4----4-----4-------7-|
E|----------------------------------|
               * *              * *
  "Priest, do you remember King..."


Play Riff 1  "...hill....yes I do..."

Riff 8 (Solo Rhythm)
e|--------------------------------------------|
B|--------------------------------------------|
G|--------------------------------------------|
D|----6---4-----------------6---4-----------4-|
A|------------7---6-4---------------7---6-7---|
E|-4----4---4---4-----7--4----4---4---4-------|

e|--------------------------------------------|
B|--------------------------------------------|
G|--------------------------------------------|
D|----4---2-----------------6---4-----------4-|
A|------------6---4-2---------------7---6-7---|
E|-2----2---2---2-----6--4----4---4---4-------|

e|--------------------|
B|--------------------|
G|--------------------|
D|----4----------4--2-|
A|-4--2--4----4--2--0-|
E|-2-----2----2-------|

e|--------------------------------------------|
B|--------------------------------------------|
G|--------------------------------------------|
D|----6---4-----------------6---4-----------4-|
A|------------7---6-4---------------7---6-7---|
E|-4----4---4---4-----7--4----4---4---4-------|


Riff 9 (Solo Rhythm)
e|--------------------------0---|
B|----------------------------0-|
G|------------------------------|
D|-12---11----12---11-----------|
A|-10----9----10----9---10------|
E|----0----------0----0--8------|
      *          *    *
e|------------------------------|
B|------------------------------|
G|------------------------------|
D|-12---11----12---11---7---9-7-|
A|-10----9----10----9---5---7-5-|
E|----0----------0----0---------|
      *          *    *

Play Riff 2   "Ah, conspiracy..."
Play Riff 3  

Lead into next section
e|-19-----------------------------------|
B|---19----------------19-19------------|
G|------19----------16-------19-16------|
e|---------17--1617----------------16---|
B|--------------------------------------|
G|--------------------------------------|


Play Riff 4   "Talking to the preacher..."

Riff 10 
e|---------------------------------|
B|---------------------------------|
G|-12-12-----------11-11-----------|
D|-10-10-----------10-10-----------|
A|--0----0-0-0-0-0-------0-0-0-0-0-|
E|---------------------------------|
         * * * * *       * * * * * 
  "From what you tell me..."
e|---------------------------------|
B|---------------------------------|
G|--9--9-----------11-11-----------|
D|-10-10-----------10-10-----------|
A|-------0-0-0-0-0-------0-0-0-0-0-|
E|---------------------------------|
         * * * * *       * * * * *
  "...we cannot save him..."
e|-----------------------------|
B|-6-6-----------5-5-----------|
G|-3-3-----------2-2-----------|
D|-----0-0-0-0-0-----0-0-0-0-0-|
A|-----------------------------|
E|-----------------------------|
       * * * * *     * * * * *
  "It could be Satan himself..."
e|------------------------------|
B|-3-3------------5-5-----------|
G|-2-2------------3-3-----------|
D|-----0-0-0-0-0------0-0-0-0-0-|
A|------------------------------|
E|------------------------------|
       * * * * *      * * * * *
  "...or some evil demon..."
e|---------------------------------|
B|---------------------------------|
G|-12-12-----------11-11-----------|
D|-10-10-----------10-10-----------|
A|--0----0-0-0-0-0-------0-0-0-0-0-|
E|---------------------------------|
         * * * * *       * * * * * 
  "Let us not..."
e|---------------------------------|
B|---------------------------------|
G|--9--9-----------11-11-----------|
D|-10-10-----------10-10-----------|
A|-------0-0-0-0-0-------0-0-0-0-0-|
E|---------------------------------|
         * * * * *       * * * * *
  "...the demons..."
e|-----------------------------|
B|-6-6-----------5-5-----------|
G|-3-3-----------3-3-----------|
D|-----0-0-0-0-0-----0-0-0-0-0-|
A|-----------------------------|
E|-----------------------------|
       * * * * *     * * * * *
  "We must go..."
e|------------------------------|
B|-3-3------------5-5-----------|
G|-2-2------------3-3-----------|
D|-----0-0-0-0-0------0-0-0-0-0-|
A|------------------------------|
E|------------------------------|
       * * * * *      * * * * *
  "...do what must be done..."



Riff 11 (Solo Rhythm, Play 2x)
e|--------------------------------------|
B|--------------------------------------|
G|--------------------------------------|
D|-3--5-------------------3--5----8-7-5-|
A|-3--5----5-5---8--------3--5----8-8-3-|
E|---------6-5-0-5----------------------|


Riff 12 (Solo Rhythm, Play 2x)
e|--------------------------------|
B|--------------------------------|
G|--------------------------------|
D|--------------8-----8-----8-----|
A|-8--8--5------6-----6-----6-----|
E|-5--6--3--3-3---3-3---3-3---0-0-|
            * *   * *   * *   * * 

e|--------------------------------|
B|--------------------------------|
G|--------------5-----5-----5-----|
D|----------3-3-3-3-3-3-3-3-3-----|
A|-8--8--3------------------------|
E|-5--6--1--------------------0-0-|
            * *   * *   * *   * * 

Riff 13 (Solo Rhythm)
e|------------------------------|
B|------------------------------|
G|------------------------------|
D|-------8------8-----8-----8---|
A|-8--8--6--6-6-6-6-6-6-6-6-6-0-|
E|-5--6-------------------------|
            * *   * *   * *   * 
e|--------------------------|
B|--------------------------|
G|--------------------------|
D|-8------8-----8-----8-----|
A|-5--5-5-5-5-5-5-5-5-5-3-0-|
E|--------------------------|
      * *   * *   * *   * *


Riff 14 (Solo Rhythm ending)
e|----------------------------------------|
B|----------------------------------------|
G|-------4--------4----------4--------4---|
D|-----4----4-------4------4----4-------4-|
A|-0h2--------0-0-------------------------|
E|---------------------0h3--------2-2-----|
  "Ah, conspiracy..."


Play Riff 6   "I am being victimized again..."

Lead into next section:
e|-----3----------------------|
B|-------3--------------------|
G|----------------------------|
D|--5-------5------4--4--4----|
A|--3-------3------2--2--2----|
E|--3-------3------2--2--2----|
                 "Victimized!"

Riff 15
e|---------------------------------------------------|
B|---------------------------------------------------|
G|--------7----------------------------7-------------|
D|------9---9-10-7-9----7------------9---10-9--------|
A|-7-10--------------10---10-9--7-10-----------------|
E|--------------------------------------------8~--7~-|

e|--------------------------------------------------|
B|--------------------------------------------------|
G|--------7----------------------------7------------|
D|------9---9-10-7-9----7------------9---10-9-------|
A|-7-10--------------10---10-9--7-10----------10--7-|
E|---------------------------------------------8--5-|

Riff 15a 
e|----------------------------------------------------|
B|---------8----------------------------8-------------|
G|-------9---9-10-7-9----7------------9---10-9--------|
D|-/7-10--------------10---10-9--7-10-----------------|
A|---------------------------------------------8~--7~-|
E|----------------------------------------------------|


Play Riff 15


Riff 16
e|--------------------------------------------------|
B|--------------------------------------------------|
G|--------------------------------------5-----------|
D|-------8---7-------8---7-------8---7----8-7-5-----|
A|----------------------------------------------8-7-|
E|-5-5-5---5---5-5-5---5---5-5-5---5----------------|
   * * *   *   * * *   *   * * *   *
e|--------------------------------------------------|
B|--------------------------------------------------|
G|--------------------------------------5-----------|
D|-------8---7-------8---7-------8---7----8-7-5-----|
A|-5-5-5---5---5-5-5---5---5-5-5---5------------8-7-|
E|--------------------------------------------------|
   * * *   *   * * *   *   * * *   *
e|--------------------------------------------------|
B|--------------------------------------------------|
G|--------------------------------------5-----------|
D|-------8---7-------8---7-------8---7----8-7-5-----|
A|----------------------------------------------8-7-|
E|-6-6-6---6---6-6-6---6---6-6-6---6----------------|
   * * *   *   * * *   *   * * *   *
e|--------------------------------------------------|
B|--------------------------------------------------|
G|--------------------------------------5-----------|
D|-------8---7-------8---7-------8---7----8-7-5-----|
A|-6-6-6---6---6-6-6---6---6-6-6---6------------8-7-|
E|--------------------------------------------------|
   * * *   *   * * *   *   * * *   *
e|--------------------------------------------------|
B|--------------------------------------------------|
G|--------------------------------------------------|
D|-------8---7-------8---7-------8---7-------8---7--|
A|-------------------------4-4-4---4---4-4-4---4----|
E|-8-8-8---8---8-8-8---8----------------------------|
   * * *   *   * * *   *   * * *   *   * * *   *
e|--------------------------------------------------|
B|--------------------------------------------------|
G|--------------------------------------5-----------|
D|-------8---7-------8---7-------8---7----8-7-5-----|
A|-5-5-5---5---5-5-5---5---5-5-5---5------------8-7-|
E|--------------------------------------------------|
   * * *   *   * * *   *   * * *   *

Play Riff 15
Play Riff 15a


Riff 15b
e|---------------------------------------------------|
B|---------------------------------------------------|
G|--------7----------------------------7-------------|
D|------9---9-10-7-9----7------------9---10-9--------|
A|-7-10--------------10---10-9--7-10-----------------|
E|--------------------------------------------8~--7~-|

e|--------------------------------------------------|
B|--------------------------------------------------|
G|--------7----------------------------7------------|
D|------9---9-10-7-9----7------------9---10-9-------|
A|-7-10--------------10---10-9--7-10----------10--9-|
E|---------------------------------------------8--7-|


Riff 17
e|---------------------------------------------|
B|---------------------------------------------|
G|---------------------------------------------|
D|---------------------------------------------|
A|-------9----------7-7---------5----------4-4-|
E|-7-7-7-7--5-5-5-5-5-5---3-3-3-3--2-2-2-2-2-2-|
   * * *    * * * *       * * *    * * * *

e|-------------|
B|-------------|
G|-------------|
D|-------9-9\--|
A|-------7-7\--|
E|-0-0-0-------|
   * * *
--------------------------------------------------------

9. CREMATION

Tuning: Standard

Intro
e|--0-7p0-8p0-7p0-10p0-8p0-7p0-8p0-7p0-|
B|-------------------------------------|
G|-------------------------------------|
D|-------------------------------------|
A|-------------------------------------|
E|-------------------------------------|

e|--7p0-8p0-7p0-10p0-8p0-7p0-8p0-7p0-|
B|-----------------------------------|
G|-----------------------------------|
D|-----------------------------------|
A|-----------------------------------|
E|-----------------------------------|


Riff 1
Guitar 1
e|--7p0-8p0-7p0-10p0-8p0-7p0-8p0-7p0-|
B|-----------------------------------|
G|-----------------------------------|
D|-----------------------------------|
A|-----------------------------------|
E|-----------------------------------|

Guitar 2                x2
e|-----------------------|
B|-----------------------|
G|-----------------------|
D|-----------------------|
A|---------------2-----1-|
E|--0--------------------|
                        x2
e|-----------------------|
B|-----------------------|
G|-----------------------|
D|---------------4-----3-|
A|--2------------2-----1-|
E|--0--------------------|



Riff 2
Guitar 1
e|--7p0-8p0-7p0-10p0-8p0-7p0-8p0-7p0-|
B|-----------------------------------|
G|-----------------------------------|
D|-----------------------------------|
A|-----------------------------------|
E|-----------------------------------|

Guitar 2
e|------------------------------|
B|------------------------------|
G|------------------------------|
D|------------------------------|
A|------------------------------|
E|-0-0-0-0-0-0-0000-0-0-0-0-0-0-|
   * * * * * * **** * * * * * * 
e|----------------------------------------|
B|----------------------------------------|
G|----------------------------------------|
D|----------------------------------------|
A|-2222-1-1-1-1-1-1-1111-1-1-1-1-1-1------|
E|-----------------------------------1111-|
   **** * * * * * * **** * * * * * * ****


Riff 3
Guitar 1
e|--7p0-8p0-7p0-10p0-8p0-7p0-8p0-7p0-|
B|-----------------------------------|
G|-----------------------------------|
D|-----------------------------------|
A|-----------------------------------|
E|-----------------------------------|

Guitar 2
e|-------------------------------|
B|-------------------------------|
G|-------------------------------|
D|-------------------------4--3--|
A|---2--2--------2--2------2--1--|
E|---0--0--------0--0------------|


Lead into next section:
e|--------------------------|
B|--12-11-------------------|
G|--------------14-13--9-10-|
D|--------11-12-------------|
A|--------------------------|
E|--------------------------|


Riff 4
Guitar 1
e|--7p0-8p0-7p0-10p0-8p0-7p0-8p0-7p0-|
B|-----------------------------------|
G|-----------------------------------|
D|-----------------------------------|
A|-----------------------------------|
E|-----------------------------------|

Guitar 2
e|------------------------------|
B|------------------------------|
G|------------------------------|
D|-------------------------9-10-|
A|-------------------------7--8-|
E|-0-0-0-0-0-0-0-0-0-0-0-0------|
   * * * * * * * * * * * * 



Riff 5
Guitar 1
e|--7p0-8p0-7p0-10p0-8p0-7p0-8p0-7p0-|
B|-----------------------------------|
G|-----------------------------------|
D|-----------------------------------|
A|-----------------------------------|
E|-----------------------------------|

Guitar 2
e|------------------------------------|
B|------------------------------------|
G|------------------------------------|
D|------------------------------------|
A|------------------------------------|
E|-1111111111111111-33333333-66666666-|
   **************** ******** ******** 

Guitar 3                   x2
e|--------------------------|
B|--12-11-------------------|
G|--------------14-13--9-10-|
D|--------11-12-------------|
A|--------------------------|
E|--------------------------|


Play Riff 4
Play Riff 5
Play Riff 4
Play Riff 5

Riff 6
Guitar 1
e|--7p0-8p0-7p0-10p0-8p0-7p0-8p0-7p0-|
B|-----------------------------------|
G|-----------------------------------|
D|-----------------------------------|
A|-----------------------------------|
E|-----------------------------------|

Guitar 2
e|---------------------------------------|
B|---------------------------------------|
G|---------------------------------------|
D|----------------------------------4--3-|
A|--2--2----2--2----2--2----2--2----2--1-|
E|--0--0----0--0----0--0----0--0---------|

Guitar 3 (Comes in after awhile)    x2
e|-----------------------------------|------------|
B|--7p0-8p0-7p0-10p0-8p0-7p0-8p0-7p0-|---------17-|
G|-----------------------------------|-----16-----|
D|-----------------------------------|-14---------|
A|-----------------------------------|------------|
E|-----------------------------------|------------|


Play Riff 4
Play Riff 5
Play Riff 4
Play Riff 5
Play Riff 4
Play Riff 5

Riff 7  (Play twice)
Guitar 1
e|--7p0-8p0-7p0-10p0-8p0-7p0-8p0-7p0-|
B|-----------------------------------|
G|-----------------------------------|
D|-----------------------------------|
A|-----------------------------------|
E|-----------------------------------|

Guitar 2
e|-------------------------------|
B|-------------------------------|
G|-------------------------------|
D|-------------------------4--3--|
A|---2--2--------2--2------2--1--|
E|---0--0--------0--0------------|

Guitar 3
e|--------------------------|
B|--12-11-------------------|
G|--------------14-13--9-10-|
D|--------11-12-------------|
A|--------------------------|
E|--------------------------|


Riff 8 
Guitar 1
e|--7p0-8p0-7p0-10p0-8p0-7p0-8p0-7p0-|
B|-----------------------------------|
G|-----------------------------------|
D|-----------------------------------|
A|-----------------------------------|
E|-----------------------------------|

Guitar 2
e|-----------------------|
B|-----------------------|
G|-----------------------|
D|-----------------------|
A|---2--2--------2--2----|
E|---0--0--------0--0----|

Guitar 3
e|--------------------------|
B|--12-11-------------------|
G|--------------14-13--9-10-|
D|--------11-12-------------|
A|--------------------------|
E|--------------------------|


Ending:
e|-------|
B|-------|
G|-------|
D|--8----|
A|--7----|
E|--6----|


Then this comes in again:
Guitar 1
e|--7p0-8p0-7p0-10p0-8p0-7p0-8p0-7p0-|
B|-----------------------------------|
G|-----------------------------------|
D|-----------------------------------|
A|-----------------------------------|
E|-----------------------------------|

Guitar 2
e|--------------------------|
B|--12-11-------------------|
G|--------------14-13--9-10-|
D|--------11-12-------------|
A|--------------------------|
E|--------------------------|

End.

notation:
^   =  bend [ ^ = half, ^^ = whole, etc. ]
^r  =  bend and release
x   =  mute with fret-hand
*   =  mute with palm-hand
X\\ =  pick slide
h   =  hammer-on
p   =  pull-off
~   =  vibrato
t   =  tap-on
/   =  slide up
\   =  slide down
h.  =  harmonics
ah  =  artificial harmonic
(9) =  ghost note
tm  =  trem picking
tr  =  trill
comments
We did not receive enough feedback on this tab! Please rate:
1 2 3 4 5
1 comment total.
+1 reply
joeadzhiyev(: wrote on June 10 2007, 07:04 pm

dude you stole this from me to!!stop stealing my tabs you ultimate guitar poser!!!!!!!. god, andrew your so gay dude. get your own life and learn to live it. i can see why you would steal my tab seeing as you suck at guitar and all. but come on dude theres more to life then stealing my work and taking all the credit.me and my band(yes i said band cuz i actully have friends to play guitar with)are going to come up with a song singing about how gay you are. are you going to try and tab that too?but oh yeah, thats right,you suck. i forgot. but i am sure there will be tons of people tabbing that song and then you can copy and past them on and take credit for it as well.haha

stop stealing from mxtabs!.............fag.

I want to post or [tab]
guest
You may want to rate the tab now too:
select rating
Please do not post tabs as comments. Select "correction" instead!