Oops, an error
Loading. Please wait.

Fatal Portrait Tab

2,399 views 6 this week
no commentswrite comment
1 2 3 4 5
excellent!
x 2
Autoscroll
+/-
esc
set tempo
stop
Contributor
Difficulty
advanced
NEW! There's an official Ultimate Guitar app which is ideal
for learning songs when you're away from computer. Get the app
WARNING: You are trying to view
                                    content from Ultimate-Guitar.com
                                    in an unauthorized application,
                                    which is prohibited.

                                    Please use an official Ultimate
                                    Guitar Tabs application for iPhone,
                                    iPad or Android to access legitimate
                                    chords, guitar, bass, and drum tabs
                                    from Ultimate-Guitar.com database.

                                    Type "ultimate guitar tabs" in Apple
                                    App Store's or Android Market's
                                    search to find the application.
Band - King Diamond
Album - Fatal Portrait

Track Listings:
1. The Candle
2. The Jonah
3. The Portrait
4. Dressed In White
5. Charon
6. Lurking In The Dark
7. Halloween
8. Voices From The Past
9. Haunted
10. No Presents For Christmas
11. The Lake

---------------------------------------------------------------

1. THE CANDLE
Tuning: Standard


Riff 1
Guitar 1
e|--------------------------------------------------------|
B|--------------------------------------------------------|
G|--------------------------------------------------------|
D|--------------------------------------------------------|
A|----------------------------------------666-------------|
E|-666666666666-999999999999-888888888888-----999-888-999-|
   ************ ************ ************ *** *** *** ***    

Guitar 2
e|-----------------------------------------------------------------|
B|-----------------------------------------------------------------|
G|-----------------------------------------------------------------|
D|-----------------------------------------------------------------|
A|-----888-999-888-----888-999-888-----888-999-888-666-------------|
E|-666-------------666-------------666-----------------999-888-999-|
   *** *** *** *** *** *** *** *** *** *** *** *** *** *** *** ***



Riff 2
Guitar 1
e|--------------------------------------------------------|
B|--------------------------------------------------------|
G|--------------------------------------------------------|
D|--------------------------------------------------------|
A|----------------------------------------333-------------|
E|-333333333333-666666666666-555555555555-----666-555-666-|
   ************ ************ ************ *** *** *** ***    

Guitar 2
e|-----------------------------------------------------------------|
B|-----------------------------------------------------------------|
G|-----------------------------------------------------------------|
D|-----------------------------------------------------------------|
A|-----555-666-555-----555-666-555-----555-666-555-333-------------|
E|-333-------------333-------------333-----------------666-555-666-|
   *** *** *** *** *** *** *** *** *** *** *** *** *** *** *** ***



Riff 3
e|--------------------------------------|
B|--------------------------------------|
G|--------------------------------------|
D|-4------------3-----------4-----------|
A|-2--222222222-2-222222222-2-222222222-|
E|--------------------------------------|
      *********   *********   *********
   "Here I am..."
e|-------------------------------------------------|
B|-------------------------------------------------|
G|-------------------------------------------------|
D|-------------------------------------------------|
A|-6-----------5-----------6-----------5-----------|
E|-4-444444444-4-444444444-4-444444444-4-444444444-|
     *********   *********   *********   *********
   "...again by that flame..."
e|-------------------------------------------|
B|-------------------------------------------|
G|-------------------------------------------|
D|-6----2------------------------------------|
A|-4----0--------666-777-666-----666-777-666-|
E|-----------444-------------444-------------|
             *** *** *** *** *** *** *** ***
   "In every candle..."
e|-------------------------------------|
B|-------------------------------------|
G|-------------------------------------|
D|-6----2------------------------------|
A|-4----0------------------------------|
E|-----------222222222222-444444444444-|
             ************ ************
   "I see the same face..."


Play Riff 1
Play Riff 2
Play Riff 3   "Eyes in pain..."
Play Riff 1   Solo Rhythm
Play Riff 2   Solo Rhythm
Play Riff 3   "Time has come..."

Riff 4 (Solo Rhythm)
e|-------------------------------------------|
B|-------------------------------------------|
G|-------------------------------------------|
D|--------------------2---------------5--5-7-|
A|-2--2-xx-2--0-2-3-5----2--2-xx-2----3--3-5-|
E|-0--0-xx-0-------------0--0-xx-0--0--------|
                                    *
e|-------------------------------------------|
B|-------------------------------------------|
G|-------------------------------------------|
D|--------------------2---------------7--7-5-|
A|-2--2-xx-2--0-2-3-5----2--2-xx-2----5--5-3-|
E|-0--0-xx-0-------------0--0-xx-0--0--------|
                                    *


Riff 5
e|-------------------------------------------------|
B|-------------------------------------------------|
G|-------------------------------------------------|  
D|-0-----0-----2h3-2-----2-----2h3-0-----0-----2h3-| 
A|-0-0-0-0-0-0-1---1-1-1-1-1-1-1---0-0-0-0-0-0-1---|
E|-------------------------------------------------|
     * *   * *       * *   * *       * *   * *
   "Ohhhh...."

Riff 6
e|----------------------------------|
B|----------------------------------|
G|----------------------------------|
D|-------5-----7----------5-----7---|
A|---------7-----8----------7-----8-|
E|-0-0-0-----0------0-0-0-----0-----|
   * * *     *      * * *     *


Repeat Riff 6  "...ah!"
Play Riff 5    "Ohhhh..."
Play Riff 6    "The jonah..."
Play Riff 5    "Ohhhh..."
Play Riff 6

Lead into next section:
e|----------------------|
B|----------------------|
G|----------------------|
D|-5-----7----5-----7---|
A|---7-----8----7-----8-|
E|-----0----------0-----|
       *          *


Riff 7
e|---------------|
B|---------------|
G|---------------|
D|-10-9----5-7-8-|
A|--8-7----3-5-6-|
E|---------------|
      "Ah..."


Play Riff 1
Play Riff 2
Play Riff 3    "In twisted key..."


Riff 8 (Solo Rhythm)
e|---------------------------------------------------------|
B|---------------------------------------------------------|
G|---------------------------------------------------------|
D|-12------12------12------9/10-9--12------12------10-9-10-|
A|-10------10------10------7/-8-7--10------10-------8-7--8-|
E|-10--000-10--000-10--000---------10--000-10--000---------|
       ***     ***     ***             ***     ***
e|---------------------------------------------------------|
B|---------------------------------------------------------|
G|---------------------------------------------------------|
D|-12------12------12------9/10-9--12------12------10-9-10-|
A|-10------10------10------7/-8-7--10------10-------8-7--8-|
E|-10--000-10--000-10--000---------10--000-10--000---------|
       ***     ***     ***             ***     ***
e|---------------------------------------------------------|
B|---------------------------------------------------------|
G|-12------12------12------9/10-9--12------12------10-9-10-|
D|-10------10------10------7/-8-7--10------10-------8-7--8-|
A|-10--000-10--000-10--000---------10--000-10--000---------|
E|---------------------------------------------------------|
       ***     ***     ***             ***     ***
e|---------------------------------------------------------------|
B|---------------------------------------------------------------|
G|-12------12------12------9/10-9--12------12------10-9-10-9-7-9-|
D|-10------10------10------7/-8-7--10------10-------8-7--8-7-5-7-|
A|-10--000-10--000-10--000---------10--000-10--000---------------|
E|---------------------------------------------------------------|
       ***     ***     ***             ***     ***
e|---------------------------------------------------------|
B|---------------------------------------------------------|
G|---------------------------------------------------------|
D|-12------12------12------9/10-9--12------12------10-9-10-|
A|-10------10------10------7/-8-7--10------10-------8-7--8-|
E|-10--000-10--000-10--000---------10--000-10--000---------|
       ***     ***     ***             ***     ***
e|-------------------------------------------------|
B|-------------------------------------------------|
G|-------------------------------------------------|
D|-12------12------12------9/10-9--12------12------|
A|-10------10------10------7/-8-7--10------10------|
E|-10--000-10--000-10--000---------10--000-10--000-|
       ***     ***     ***             ***     ***


Ending:
e|---------------------------------------|
B|---------------------------------------|
G|---------------------------------------|
D|---------------------------------------|
A|-8-6---6------8-6---6------8-6---6-----|
E|-----8---8-7------8---8-7------8---8-7-|

e|------------------------|
B|------------------------|
G|------------------------|
D|------------------------|
A|-----666-777-6----9-----|
E|-444--------------7--4\-|

--------------------------------------------------------------------

2. THE JONAH
Tuning: Standard


Riff 1
Guitar 1
e|--------------------------------|
B|--------------------------------|
G|--------------------------------|
D|--------------------------------|
A|------4--3-------2---4-3h4p3----|
E|-2------------4---------------5-|

Final time
e|--------------------|
B|--------------------|
G|--------------------|
D|-----------------4--|
A|------4--3-------2--|
E|-2------------4-----|


Guitar 2 (comes in at 0:39)
e|--------------------------------|
B|--------------------------------|
G|--------------------------------|
D|------4--3-------2---4-3h4p3----|
A|-2------------4---------------5-|
E|--------------------------------|

e|--------------------------------|
B|--------------------------------|
G|--------------------------------|
D|------6--5-------4---6-5h6p5----|
A|-4------------6---------------7-|
E|--------------------------------|

e|----------------------------------|
B|----------------------------------|
G|------9--8-------7---9-8h9p8------|
D|-7------------9---------------10--|
A|----------------------------------|
E|----------------------------------|


Riff 2
e|-------------------------------------|
B|-------------------------------------|
G|-------------------------------------|
D|---9-10---9-10-9-------7-8---7-8-7---|
A|-7------7--------10--5-----5-------8-|
E|-------------------------------------|



Riff 3
Guitar 1
e|-------------------------------------|
B|-------------------------------------|
G|-------------------------------------|
D|-------------------------------------|
A|---9-10---9-10-9-------7-8---7-8-7---|
E|-7------7--------10--5-----5-------8-|

Guitar 2
e|-------------------------------------------|
B|-------------------------------------------|
G|---11-12---11-12-11-------9-10---9-10-9----|
D|-9-------9----------12--7------7--------10-|
A|-------------------------------------------|
E|-------------------------------------------|


Riff 4
e|----------------------------------|
B|----------------------------------|
G|----------------------------------|
D|---6-7---6-7-6--------------------|
A|-4-----4-------7----6-7---6-7-6---|
E|------------------4-----4-------7-|
   "In the attic..."


Riff 5
e|----------------------------------------------|
B|----------------------------------------------|
G|----------------------------------------------|
D|-2----------4------------------6----------6---|
A|-0--0-0-0-0-2--2-2-2-2-4-4-4-4-4--4-4-4-4-4-6-|
E|--------------------------------------------7-|
      * * * *    * * * * * * * *    * * * *    
   "Old and gray..."
e|-------------------------|
B|-------------------------|
G|-------------------------|
D|-2----------4----------6-|
A|-0--0-0-0-0-2--2-2-2-2-4-|
E|-------------------------|
      * * * *    * * * * 
   "...I felt it staring..."

Riff 6
e|------------|
B|------------|
G|------------|
D|-6-----2----|
A|-4--6--0--6-|
E|----7-----4-|
  "Oh that book..."


Play Riff 3
Play Riff 4   "Yellow pages..."


Riff 7
e|-----------------------------|
B|-----------------------------|
G|-----------------------------|
D|-----------------------------|
A|-----------------------------|
E|-1-1-1-1-4~---1-1-1-1-0-1-2~-|
   "In an ancient rhyme..."
   

Riff 5a
e|----------------------------------------------|
B|----------------------------------------------|
G|----------------------------------------------|
D|-2----------4------------------6----------6---|
A|-0--0-0-0-0-2--2-2-2-2-4-4-4-4-4--4-4-4-4-4-6-|
E|--------------------------------------------7-|
      * * * *    * * * * * * * *    * * * *    
   "It had been there..."
e|-----------------------|
B|-----------------------|
G|-----------------------|
D|-2----------4----------|
A|-0--0-0-0-0-2--2-2-2-2-|
E|-----------------------|
      * * * *    * * * * 
   "And no one ever knew..."


Riff 8                x4
e|---------------------|-----------------|
B|---------------------|-----------------|
G|---------------------|-----------------|
D|-6---6---6---8/9-8/9-|-4----4/-9--9--9-|
A|-4---4---4---6/7-6/7-|-2----2/-7--6--7-|
E|---------------------|-----------------|
   "Now break the spell..."


Final time
e|---------------------|
B|---------------------|
G|---------------------|
D|-6---6---6---8/9-8/9-|
A|-4---4---4---6/7-6/7-|
E|---------------------|
   "...ah you're free..."


Riff 9 (Solo Rhythm)              x2
e|---------------------------------|-------------------------|
B|---------------------------------|-------------------------|
G|---------------------------------|-------------------------|
D|-6-6-6-6-6-6-6-6-6-6-6-6-8/9-8/9-|-4-4-4-4-4-4-4-4-9--9--9-|
A|-4-4-4-4-4-4-4-4-4-4-4-4-6/7-6/7-|-2-2-2-2-2-2-2-2-7--6--7-|
E|---------------------------------|-------------------------|
   * * * * * * * * * * * *           * * * * * * * * 
e|------------------------------|
B|------------------------------|
G|------------------------------|
D|-6-6-6-6-6-6-6-6-6-6-6-6-9--8-|
A|-4-4-4-4-4-4-4-4-4-4-4-4-7--6-|
E|------------------------------|
   * * * * * * * * * * * *        x2
e|---------------------------------|-------------------------|
B|---------------------------------|-------------------------|
G|---------------------------------|-------------------------|
D|-6-6-6-6-6-6-6-6-6-6-6-6-8/9-8/9-|-4-4-4-4-4-4-4-4-9--9--9-|
A|-4-4-4-4-4-4-4-4-4-4-4-4-6/7-6/7-|-2-2-2-2-2-2-2-2-7--6--7-|
E|---------------------------------|-------------------------|
   * * * * * * * * * * * *           * * * * * * * * 
e|------------------------------|
B|------------------------------|
G|------------------------------|
D|-6-6-6-6-6-6-6-6-6-6-6-6-9--8-|
A|-4-4-4-4-4-4-4-4-4-4-4-4-7--6-|
E|------------------------------|
   * * * * * * * * * * * *
 

Play Riff 7   Solo Rhythm


Riff 10 (Solo Rhythm)        
e|----------------------------|
B|----------------------------|
G|----------------------------|
D|----------------------------|
A|----------------------------|
E|-3-3-3-3-6~--3-3-3-3-6-3-6~-|


Riff 7a (Solo Rhythm)
e|-----------------------------|
B|-----------------------------|
G|-----------------------------|
D|-----------------------------|
A|-----------------------------|
E|-1-1-1-1-4~---1-1-1-1-0-1-2~-|

e|----------------------------|
B|----------------------------|
G|----------------------------|
D|----------------------------|
A|--------------------------4-|
E|-1-1-1-1-4~---1-1-1-1-0-1-2-|
                          "Ahhh...."


Riff 11
e|--------------------------------------|
B|--------------------------------------|
G|--------------------------------------|
D|----------9-------------------9-10----|
A|---9-10-----10-9-------9-10--------12-|
E|-0------0--------10--0------0---------|
   *      *            *      *
e|---------------------------------------|
B|---------------------------------------|
G|---------------------------------------|
D|----------9----------9-10-9------------|
A|---9-10-----10-9------------10-12-10-9-|
E|-0------0--------10--------------------|
   *      * 

Riff 12
e|--------------------------------------|
B|--------------------------------------|
G|----------9-------------------9-10----|
D|---9-10-----10-9-------9-10--------12-|
A|-0------0--------10--0------0---------|
E|--------------------------------------|
   *      *            *      *
e|---------------------------------------|
B|---------------------------------------|
G|----------9----------9-10-9------------|
D|---9-10-----10-9------------10-12-10-9-|
A|-0------0--------10--------------------|
E|---------------------------------------|
   *      *              

Play Riff 11

Riff 13
e|-----------------------------------------------------|
B|-----------------------------------------------------|
G|---------------------------------------------5-----7-|
D|---------9---------------4------------9----5-----7---|
A|---------7-----------5-7---5----------7--3-----5-----|
E|-0-0-0-0----0-0-0-0-----------0-0-0-0----------------|
   * * * *    * * * *           * * * * 
  "As the candle melts away..."

Final time:
e|---------------------|
B|---------------------|
G|----------5-----7----|
D|-9------5-----7----9-|
A|-7----3-----5------7-|
E|---------------------|
   "...she starts to speak..."


Riff 14
Guitar 1
e|-----------------------------------|
B|-----------------------------------|
G|-----------------------------------|
D|-----9-----10------12-----10-----9-|
A|-0-7---0-8----0-10----0-8----0-7---|
E|-----------------------------------|

e|-----------------------------------|
B|-----------------------------------|
G|-----------------------------------|
D|-----9-----10------12-----10-----5-|
A|-0-7---0-8----0-10----0-8----0-3-3-|
E|-----------------------------------|

e|-----------------|
B|-----------------|
G|-----------------|
D|-10--5----9-7-9\-|
A|--8--3----7-5-7\-|
E|-----------------|
       "Hear my story!"

Guitar 2
e|-----------------------------------|
B|-----------------------------------|
G|-----9-----10------12-----10-----9-|
D|-0-7---0-8----0-10----0-8----0-7---|
A|-----------------------------------|
E|-----------------------------------|

e|-----------------------------------|
B|-----------------------------------|
G|-----9-----10------12-----10-------|
D|-0-7---0-8----0-10----0-8--------5-|
A|-----------------------------0-3-3-|
E|-----------------------------------|

e|-----------------|
B|-----------------|
G|----------9-7-9\-|
D|-10--5----7-5-7\-|
A|--8--3-----------|
E|-----------------|
       "Hear my story!"

-----------------------------------------------------------------------

3. THE PORTRAIT

Tuning: Standard

Intro
e|-----------|
B|-----------|
G|-----------|
D|--9--------|
A|--7--------|
E|-------X\\-|


Riff 1
e|------------------------------------------------------|
B|------------------------------------------------------|
G|------------------------------------------------------|
D|-9------------9------9-8-9-10------------10-----12-10-|
A|-7--777777777-7--777-7-7-7--8--888888888--8-888-10--8-|
E|------------------------------------------------------|
      *********    ***           *********    ***


Riff 2
e|----------------------------------------------|
B|----------------------------------------------|
G|----------------------------------------------|
D|----------------------------------------------|
A|-4--------------------------------------------|
E|-2--2-2-2-2-2-2-2-2-2-2-2-2-2-2-2-2-2-2-2-2-2-|
      * * * * * * * * * * * * * * * * * * * * *
   "My mother was obsessed by..."
e|----------------------------------------------|
B|----------------------------------------------|
G|----------------------------------------------|
D|----------------------------------------------|
A|-3--------------------------------------------|
E|-1--1-1-1-1-1-1-1-1-1-1-1-1-1-1-1-1-1-1-1-1-1-|
      * * * * * * * * * * * * * * * * * * * * *
    "...evil jealousy..."
e|----------------------------------------|
B|----------------------------------------|
G|----------------------------------------|
D|----------------------3--3--------------|
A|-2--------------------1--1--1-1-1-1-1-1-|
E|-0--0-0-0-0-0-0-0-0-0-------------------|
      * * * * * * * * *       * * * * * *
   "She didn't want nobody..."
e|----------------------------------------|
B|----------------------------------------|
G|----------------------------------------|
D|----------------------3--3--------------|
A|-2--------------------1--1--1-1-1-1-1-1-|
E|-0--0-0-0-0-0-0-0-0-0-------------------|
      * * * * * * * * *       * * * * * *
   "...to even look at Molly."



Riff 3
e|------------------------------------------------|
B|------------------------------------------------|
G|----5---6---5---6---5---------------------------|
D|-5---------------------5-7--7---8---7---8---7---|
A|-3----3---3---3---3----3-5----5---5---5---5---0-|
E|------------------------------------------------|
    "Oh Molly!"
e|------------------------------------------------|
B|------------------------------------------------|
G|----5---6---5---6---5---------------------------|
D|-5---------------------5-7--7---8---7---8---7---|
A|-3----3---3---3---3----3-5----5---5---5---5-----|
E|----------------------------------------------0-|


Riff 4
Guitar 1                               x2
e|--------------------------------------|
B|--------------------------------------|
G|--------------------------------------|
D|---------------3----------------------|
A|----------2--3------------3-2---2-1---|
E|-2--4--5------------2--4------4-----3-|

Guitar 2
e|--------------------------------------|
B|--------------------------------------|
G|--------------------------------------|
D|---------------3----------5-4---4-3---|
A|----------2--3------2--4------6-----5-|
E|-2--4--5------------------------------|

e|---------------------------------------|
B|---------------------------------------|
G|---------------5-----------------------|
D|----------4--5-----------10-9---9-8----|
A|-4--6--7------------9-11-----11-----10-|
E|---------------------------------------|



Play Riff 1
Play Riff 2   "Mother was struck..."

Lead into next section:
e|-----|
B|-----|
G|-----|
D|--4--|
A|--2--|
E|-----|
  "...trace of crime..."


Play Riff 1   Solo Rhythm
Play Riff 2   "Each day and night..."
Play Riff 3   "Oh Molly!"
Play Riff 4


Riff 5 (Solo Rhythm)
e|-------------------------------------|
B|-------------------------------------|
G|-------------------------------------|
D|-10\9--------------10\9------7/9-7/9-|
A|--8\7-7-777-777-77--8\7-7-77-5/7-5/7-|
E|-------------------------------------|
	* *** *** **      * **
e|-------------------------|
B|-------------------------|
G|---------------------7---|
D|-10\9-----------7----5-7-|
A|--8\7-7-777-777-5------5-|
E|-------------------------|
        * *** ***
e|-------------------------------------|
B|-------------------------------------|
G|-------------------------------------|
D|-10\9--------------10\9------7/9-7/9-|
A|--8\7-7-777-777-77--8\7-7-77-5/7-5/7-|
E|-------------------------------------|
	* *** *** **      * **
e|-----------------------------------|
B|-----------------------------------|
G|-----------------------5-------7---|
D|-10\9----------------5---5---7---7-|
A|--8\7-7-777-777-77-3-------5-------|
E|-----------------------------------|
	* *** *** **

Final chord:
e|-----|
B|-----|
G|-----|
D|-10--|
A|--8--|
E|--8--|


Play Riff 1   Solo Rhythm
Play Riff 2   "That night I made..."
Play Riff 3   "...fate..."
Play Riff 4

Ending:
e|-------|
B|-------|
G|-------|
D|-------|
A|--2--4-|
E|--0--2-|

-----------------------------------------------------------

4. DRESSED IN WHITE

Tuning: Standard


Riff 1 (Solo Rhythm)
e|------------------------------------------------|
B|------------------------------------------------|
G|------------------------------------------------|
D|------------------------------------------------|
A|-7-77777777-3-333333333-5-555555555-7-777--7--5-|
E|-5-55555555-1-111111111-3-333333333-5-555--5--3-|
     ********   *********   *********   ***

Final time:
e|------------------------------------------------|
B|------------------------------------------------|
G|------------------------------------------------|
D|----------------------------------------------5-|
A|-7-77777777-3-333333333-5-555555555-7-777777--3-|
E|-5-55555555-1-111111111-3-333333333-5-555555----|
     ********   *********   *********   ******


Twin solo#1 (2nd guitar in parenthesis)
e|-------------------------12-13----13-12----12-13-12---12-----|
B|-----------12h13p12-15~--------15-------15----------15--15---|
G|-12h14~~-----------------------------------------------------|
D|-------------------------------------------------------------|
A|-------------------------------------------------------------|
E|-------------------------------------------------------------|

e|--------------------------------------------12-|
B|-13---12----------------------------------15---|
G|-----------12---14---14-17-14-17--16-14--------|
D|-----------------------------------------------|
A|---(9-\3/7------2------\------0--------------)-|
E|-----------------------------------------------|

e|-13--1215-12-13-12----12-13-12-15--1213-12----12-13-12-15-12-13--12---12--|
B|-------------------15----------------------15----------------------15-----|
G|-----------------------------------(1210----------------------------------|
D|----------------------------------------12^^--------12^^r-14-12)----------|
A|--------------------------------------------------------------------------|
E|------------------------------------------------------------------(10-12)-|

e|--------------------------------------------|
B|-15^^-15----15--1312----121312--------------|
G|---------------------12--------121612--14---|
D|(9----10----12----10----9)------------------|
A|------------------------------(10------12)--|
E|--------------------------------------------|

End Solo


Riff 2 (Alternate pick with uppick emphasis on 4th chord)
e|-----------------------------|
B|-----------------------------|
G|----7------3------5------7---|
D|-777777-333333-555555-777777-|
A|-555555-111111-333333-555555-|
E|-----------------------------|
   ****** ****** ****** ******  
  "She's wearing white again..."


Riff 3 (Solo Rhythm)
e|-------------------------------------------------------------|
B|-------------------------------------------------------------|
G|-------------------------------------------------------------|
D|-10-1010101010101010-6-666666666-8-888888888-10-101010-10--8-|
A|--8--8-8-8-8-8-8-8-8-4-444444444-6-666666666--8--8-8-8--8--6-|
E|-------------------------------------------------------------|
       * * * * * * * *   *********   *********     * * *
e|---------------------------------------------------------------|
B|---------------------------------------------------------------|
G|---------------------------------------------------------------|
D|-10-1010101010101010-6-666666666-8-888888888-10-101010101010-5-|
A|--8--8-8-8-8-8-8-8-8-4-444444444-6-666666666--8--8-8-8-8-8-8-3-|
E|---------------------------------------------------------------|
       * * * * * * * *   *********   *********     * * * * * *


Solo (something like this)
e|---------------8-9-11-9-8---8-9-8----------------------------|
B|------8h9p8---------------11------11-9-11-9-8----------------|
G|-8h10-------10--------------------------------8-10-----------|
D|-------------------------------------------------------------|
A|-------------------------------------------------------------|
E|-------------------------------------------------------------|

e|-8-9-8-11-8-9-8-9-8-11-8-9-8-9-8-11-9-8-9--9-----------------|
B|-------------------------------------------------------------|
G|-------------------------------------------------------------|
D|-------------------------------------------------------------|
A|-------------------------------------------------------------|
E|-------------------------------------------------------------|

e|-8--9--8--11-9-8----------------|
B|----------------------9---------|
G|-------------------------8-10---|
D|--------------------------------|
A|--------------------------------|
E|--------------------------------|

End Solo


Play Riff 2   "You might see her..."


Riff 4
e|---------------------------------------|
B|---------------------------------------|
G|---------------------------------------|
D|-5----7--77777777-5-----2--222222222-2-|
A|-3----5--55555555-3-----0--000000000-0-|
E|---------------------3^----------------|
           ********          *********  
   "She carries a secret..."


Play Riff 2   "...know..." then Solo Rhythm

Riff 5 (Solo Rhythm)
e|------------------------------------------|
B|------------------------------------------|
G|------------------------------------------|
D|-101010101010--666666-888888-101010101010-|
A|--8-8-8-8-8-8--444444-666666--8-8-8-8-8-8-|
E|------------------------------------------|
    * * * * * *  ****** ******  * * * * * *
e|------------------------------------------|
B|------------------------------------------|
G|------------------------------------------|
D|-101010101010--666666-888888-101010101010-|
A|--8-8-8-8-8-8--444444-666666--8-8-8-8-8-8-|
E|------------------------------------------|
    * * * * * *  ****** ******  * * * * * *

Play Riff 2   Solo Rhythm


Solo over the above rhythms:
e|--------------------------------------------------|
B|--------------------------------------------------|
G|--------------------------------------------------|
D|------------------------------7----7-8-7-8-10--12-|
A|---------7----7-8-7-8-10-8-10---10----------------|
E|-10-8-10---10-------------------------------------|

e|-----------------------------------------------------------|
B|----------------------------------10----10-11-10-11-13--15-|
G|----------9----9-10-9-10-12-10-12----12--------------------|
D|-12-10-12---12---------------------------------------------|
A|-----------------------------------------------------------|
E|-----------------------------------------------------------|

e|-16-16^15----16-16^15----16-16^15----16-16^15----|
B|----------18----------18----------18----------18-|
G|-------------------------------------------------|
D|-------------------------------------------------|
A|-------------------------------------------------|
E|-------------------------------------------------|

e|-16-16^15----16-16^15----16-16^15----16-16^15----|
B|----------18----------18----------18----------18-|
G|-------------------------------------------------|
D|-------------------------------------------------|
A|-------------------------------------------------|
E|-------------------------------------------------|

e|-15-16-15----15-----------------------------|
B|----------18----18-16-18-16-15-12---12------|
G|----------------------------------------10--|
D|--------------------------------------------|
A|--------------------------------------------|
E|--------------------------------------------|

e|-------------------------------------|
B|-15^13^10-15^13^10-15^13^10-15^13^10-|
G|-------------------------------------|
D|-------------------------------------|
A|-------------------------------------|
E|-------------------------------------|

e|-------------------------------------|
B|-15^13^10-15^13^10-15^13^10-15^13^10-|
G|-------------------------------------|
D|-------------------------------------|
A|-------------------------------------|
E|-------------------------------------|

e|-------------------------------------------------------------|
B|-15-18-17-15-17-15----15-------------------------------------|
G|-------------------17----17-16-17-16-14-16-14-12-14-12-------|
D|-------------------------------------------------------15-12-|
A|-------------------------------------------------------------|
E|-------------------------------------------------------------|

End Solo


Play Riff 4   "She carries a secret..."


Riff 6 (Solo Rhythm)
e|-----------------------------------|
B|-----------------------------------|
G|-----------------------------------|
D|-2h4-4444-2h5-5555-2h4-4444--3-4-5-|
A|-0h2-2222-0h3-3333-0h2-2222--3-4-5-|
E|-----------------------------------|

e|-----------------------------------|
B|-----------------------------------|
G|-----------------------------7-6-5-|
D|-2h4-4444-2h5-5555-2h4-4444--7-6-5-|
A|-0h2-2222-0h3-3333-0h2-2222--------|
E|-----------------------------------|

e|-----------------------------------|
B|-----------------------------------|
G|-----------------------------------|
D|-2h4-4444-2h5-5555-2h4-4444--3-4-5-|
A|-0h2-2222-0h3-3333-0h2-2222--3-4-5-|
E|-----------------------------------|

e|-----------------------------------|
B|-----------------------------------|
G|-----------------------------------|
D|-2h4-4444-2h5-5555-2h4-4444--5-4-3-|
A|-0h2-2222-0h3-3333-0h2-2222--5-4-3-|
E|-----------------------------------|


Play Riff 3   Solo Rhythm

Solo over Riff 3
e|---------------8-9-11-9-8---8-9-8----------------------------|
B|------8h9p8---------------11------11-9-11-9-8----------------|
G|-8h10-------10--------------------------------8-10-----------|
D|-------------------------------------------------------------|
A|-------------------------------------------------------------|
E|-------------------------------------------------------------|

e|-8-9-8-11-8-9-8-9-8-11-8-9-8-9-8-11-9-8-9--9-----------------|
B|-------------------------------------------------------------|
G|-------------------------------------------------------------|
D|-------------------------------------------------------------|
A|-------------------------------------------------------------|
E|-------------------------------------------------------------|

e|-8--9--8--11-9-8----------------|
B|----------------------9---------|
G|-------------------------8-10---|
D|--------------------------------|
A|--------------------------------|
E|--------------------------------|

End Solo


Play Riff 2   "Searching but not for a home..."
Play Riff 4   "She carries a secret..."
Play Riff 2   "...know..." then Solo Rhythm
Play Riff 5   Solo Rhythm
Play Riff 2   Solo Rhythm
Play Riff 5   Solo Rhythm
Play Riff 2   Solo Rhythm
Play Riff 4   "She carries a secret..."

Ending:
e|-----|
B|-----|
G|-----|
D|--7--|
A|--5--|
E|--5--|


Ending solos:

The first two solos
e|-------------------------------------------------------------|
B|10-8-6---------5---5-6-5-6-8-6-5-6-5---5---------------------|
G|------7--7-5-7---7-------------------7---7-5-7-5-------------|
D|-------------------------------------------------7-6-5-3--7--|
A|------------------------------------------------------------5|
E|-------------------------------------------------------------|

e|--------------------------------------------------------|
B|-13^9^6-13^9^6-13^9^6-14^9^6-14^9^6-14^9^6-11^8^6-11^8^6|
G|--------------------------------------------------------|
D|--------------------------------------------------------|
A|--------------------------------------------------------|
E|--------------------------------------------------------|

e|--------------------------------------------------------|
B|-11^8^6-13^9^6-13^9^6-13^9^6-13^9^6-13^9^6-13^9^6-14^9^6|
G|--------------------------------------------------------|
D|--------------------------------------------------------|
A|--------------------------------------------------------|
E|--------------------------------------------------------|

e|--------------------------------------|
B|-14^9^6-14^9^6--14-13-11-13-11--------|
G|-------------------------------13-10--|
D|--------------------------------------|
A|--------------------------------------|
E|--------------------------------------|

----------------------------------------------------------------

5. CHARON

Tuning: Standard


Intro
e|------------------|
B|------------------|
G|------------------|
D|-9--8--7--2--3--4-|
A|-7--6--5--0--1--2-|
E|------------------|
  "Ahhh..."

Riff 1
Guitar 1
e|------------------------------------------------|
B|------------------------------------------------|
G|------------------------------------------------|
D|-5---------7---------8--5---------7-------------|
A|-5---------7---------8--5---------7---------5h7-|
E|---0-0-0-0---0-0-0-0------0-0-0-0---0-0-0-0-----|
     * * * *   * * * *      * * * *   * * * *

Guitar 2
e|----------------------------------------------------|
B|----------------------------------------------------|
G|--------------------------------------------10h12~~-|
D|-5---------7---------8--5---------7-----------------|
A|-5---------7---------8--5---------7-----------------|
E|---0-0-0-0---0-0-0-0------0-0-0-0---0-0-0-0---------|
     * * * *   * * * *      * * * *   * * * * 
e|----------------------------------------------------|
B|--------------------------------------------10h12~~-|
G|----------------------------------------------------|
D|-5---------7---------8--5---------7-----------------|
A|-5---------7---------8--5---------7-----------------|
E|---0-0-0-0---0-0-0-0------0-0-0-0---0-0-0-0---------|
     * * * *   * * * *      * * * *   * * * * 


Riff 2
e|-----------------------------------------------|
B|-----------------------------------------------|
G|-9---------7---------5-7-9---------7---------5-|
D|-7---------5---------3-5-7---------5---------3-|
A|---0-0-0-0---0-0-0-0-------0-0-0-0---0-0-0-0---|
E|-----------------------------------------------|
     * * * *   * * * *       * * * *   * * * * 


Riff 1a (Guitar 2 plays notes in () )                x3
e|----------------------------------------------------|
B|----------------------------------------------------|
G|-------------------------------------------(10h12~)-|
D|-5---------7---------8--5---------7-----------------|
A|-5---------7---------8--5---------7----------5h7----|
E|---0-0-0-0---0-0-0-0------0-0-0-0---0-0-0-0---------|
     * * * *   * * * *      * * * *   * * * *
   "Welcome my friend..."
e|----------------------------------------------------|
B|-------------------------------------------(10h12~)-|
G|----------------------------------------------------|
D|-5---------7---------8--5---------7-----------------|
A|-5---------7---------8--5---------7----------5h7----|
E|---0-0-0-0---0-0-0-0------0-0-0-0---0-0-0-0---------|
     * * * *   * * * *      * * * *   * * * *



Riff 3
e|---------------------------------------|
B|---------------------------------------|
G|---------------------------------------|
D|-7----5----7--5--5---------5---------7-|
A|-5----3----5--3--3-2--2----3-2--2----5-|
E|-------------------0--0------0--0------|
   "Don't be afraid..." 


Riff 4
e|---------------------------------|
B|---------------------------------|
G|---------------------------------|
D|-4-4-4-4-4-4-4-4-4-4-4-4-4-4-4-4-|
A|-2-2-2-2-2-2-2-2-2-2-2-2-2-2-2-2-|
E|---------------------------------|
   * * * * * * * * * * * * * * * * 
   "...faceless, but don't fear..."
e|---------------------------------|
B|---------------------------------|
G|---------------------------------|
D|-5-5-5-5-5-5-5-5-7-7-7-7-7-7-7-7-|
A|-3-3-3-3-3-3-3-3-5-5-5-5-5-5-5-5-|
E|---------------------------------|
   * * * * * * * * * * * * * * * * 
   "...I'll take you..."


Riff 5                   x2
e|------------------------|
B|------------------------|
G|------------------------|
D|------10--9--7--4--5--4-|
A|-3-----8--7--5--2--3--2-|
E|-1----------------------|
   "...river Styx..."


Play Riff 1 
Play Riff 2
Play Riff 1   "Waste no time..."
Play Riff 3   "Don't be afraid..."
Play Riff 4   "...faceless, but don't fear..."


Riff 5a
Guitar 1
e|------------------------|
B|------------------------|
G|------------------------|
D|------10--9--7--4--5--4-|
A|-3-----8--7--5--2--3--2-|
E|-1----------------------|
   "...river Styx..."

Guitar 2
e|------------------------|
B|------------------------|
G|------------------------|
D|-------7--9-10-9-4-5----|
A|-3--------------------7-|
E|-1----------------------|


Riff 6 (Solo Rhythm)  
e|-------------------------------|
B|-------------------------------|
G|-------------------------------|
D|----10---9---10----9-----------|
A|-----8---7----8----7---------5-|
E|-0-0---0----0----0---0-5-6-7---|
   * *   *    *    *   * 
e|------------------------------|
B|------------------------------|
G|------------------------------|
D|----10---9--------------------|
A|-----8---7--------------------|
E|-0-0---0----0-7--6-5-0-3-5-3~-|
   * *   *    *     


Riff 7 (Solo Rhythm)
e|------------------------------|
B|------------------------------|
G|------------------------------|
D|-----------5---4--4-4-4-5-4-2-|
A|-4---------3-0-2--2-2-2-3-2-0-|
E|-2-2-2-2-2--------------------|
     * * * *   * 
e|-----------------------|
B|-----------------------|
G|-----------------------|
D|-----------5---4--5--6-|
A|-4---------3-0-2--3--4-|
E|-2-2-2-2-2-------------|
     * * * *   *

Play Riff 1   "I am your death..."
Play Riff 2
Play Riff 1   "We must leave now..."
Play Riff 3   "Don't be afraid..."
Play Riff 4   "...faceless, now don't fear..."
Play Riff 5


Riff 8 (Solo Rhythm)
e|-----------------------------------------|
B|-----------------------------------------|
G|-----------------------------------------|
D|-9---------9---------9---------9---------|
A|-7-7-7-7-7-7-7-7-7-7-7-7-7-7-7-7-7-0-0-0-|
E|-----------------------------------------|
     * * * *   * * * *   * * * *   * * * *
e|-----------------------------------------|
B|-----------------------------------------|
G|-----------------------------------------|
D|-5---------5---------5---------5---------|
A|-3-3-3-3-3-3-3-3-3-3-3-3-3-3-3-3-3-5-5-5-|
E|-----------------------------------------|
     * * * *   * * * *   * * * *   * * * *
e|-----------------------------------------|
B|-----------------------------------------|
G|-----------------------------------------|
D|-9---------9---------9---------9---------|
A|-7-7-7-7-7-7-7-7-7-7-7-7-7-7-7-7-7-0-0-0-|
E|-----------------------------------------|
     * * * *   * * * *   * * * *   * * * *
e|-----------------------------------------|
B|-----------------------------------------|
G|-----------------------------------------|
D|-5---------5---------5---------5---------|
A|-3-3-3-3-3-3-3-3-3-3-3-3-3-3-3-3-3-3-3-3-|
E|-----------------------------------------|
     * * * *   * * * *   * * * *   * * * *
e|-----------------------------------------|
B|-----------------------------------------|
G|-----------------------------------------|
D|-4---------4---------4---------4---------|
A|-2-2-2-2-2-2-2-2-2-2-2-2-2-2-2-2-2-2-2-2-|
E|-----------------------------------------|
     * * * *   * * * *   * * * *   * * * *
e|-------------------------------------|
B|-------------------------------------|
G|-------------------------------------|
D|-4---------4---------4---------4--7--|
A|-2-2-2-2-2-2-2-2-2-2-2-2-2-2-2-2--5--|
E|-------------------------------------|
     * * * *   * * * *   * * * * 
e|-----------------------------------------|
B|-----------------------------------------|
G|-----------------------------------------|
D|-9---------9---------9---------9---------|
A|-7-7-7-7-7-7-7-7-7-7-7-7-7-7-7-7-7-0-0-0-|
E|-----------------------------------------|
     * * * *   * * * *   * * * *   * * * *
e|-----------------------------------------|
B|-----------------------------------------|
G|-----------------------------------------|
D|-5---------5---------5---------5---------|
A|-3-3-3-3-3-3-3-3-3-3-3-3-3-3-3-3-3-5-5-5-|
E|-----------------------------------------|
     * * * *   * * * *   * * * *   * * * *
e|-----------------------------------------|
B|-----------------------------------------|
G|-----------------------------------------|
D|-9---------9---------9---------9---------|
A|-7-7-7-7-7-7-7-7-7-7-7-7-7-7-7-7-7-0-0-0-|
E|-----------------------------------------|
     * * * *   * * * *   * * * *   * * * *
e|-----------------------------------------|
B|-----------------------------------------|
G|-----------------------------------------|
D|-5---------5---------5---------5---------|
A|-3-3-3-3-3-3-3-3-3-3-3-3-3-3-3-3-3-3-3-3-|
E|-----------------------------------------|
     * * * *   * * * *   * * * *   * * * *
e|-----------------------------------------|
B|-----------------------------------------|
G|-----------------------------------------|
D|-4---------4---------5---------5---------|
A|-2-2-2-2-2-2-2-2-2-2-3-3-3-3-3-3-3-3-3-3-|
E|-----------------------------------------|
     * * * *   * * * *   * * * *   * * * *
e|-----------------------------------------|
B|-----------------------------------------|
G|-----------------------------------------|
D|-4---------4---------5---------7---------|
A|-2-2-2-2-2-2-2-2-2-2-3-3-3-3-3-5-5-5-5-5-|
E|-----------------------------------------|
     * * * *   * * * *   * * * *   * * * * 
e|-------------------------------------------------------|
B|-------------------------------------------------------|
G|-------------------------------------------------------|
D|-------------------------------------11/12-11/12-11/12-|
A|-5h7---------5h7---------5h7----------9/10--9/10--9/10-|
E|-0---0-0-0-0-0---0-0-0-0-0---0-0-0-0-------------------|
       * * * *     * * * *     * * * *  
e|---------------------------|
B|---------------------------|
G|---------------------------|
D|-9---------9----------4--7-|
A|-7---------7----------2--5-|
E|---0-0-0-0---0-0-0-0-------|
     * * * *   * * * * 
e|---------------------------------|
B|---------------------------------|
G|---------------------------------|
D|-9---------11/12-11/12-11/12--9\-|
A|-7----------9/10--9/10--9/10--7\-|
E|---0-0-0-0-----------------------|
     * * * * 

---------------------------------------------------------------------

6. LURKING IN THE DARK
Tuning: Standard


Riff 1
e|-------------------------------------------|
B|-------------------------------------------|
G|-------------------------------------------|
D|--7-------7-------7---8-------8-------8----|
A|--5-5-5-5-5-5-5-5-5-5-5-5-5-5-5-5-5-5-5-5--|
E|-------------------------------------------|
      * * *   * * *   *   * * *   * * *   * 
e|-------------------------------------------|
B|-------------------------------------------|
G|-------------------------------------------|
D|--7-------7-------7---6-------6-------6----|
A|--5-5-5-5-5-5-5-5-5-5-5-5-5-5-5-5-5-5-5-5--|
E|-------------------------------------------|
      * * *   * * *   *   * * *   * * *   *
e|-------------------------------------------|
B|-------------------------------------------|
G|-------------------------------------------|
D|--7-------7-------7---8-------8-------8----|
A|--5-5-5-5-5-5-5-5-5-5-5-5-5-5-5-5-5-5-5-5--|
E|-------------------------------------------|
      * * *   * * *   *   * * *   * * *   * 
e|-------------------------------------------|
B|-------------------------------------------|
G|-------------------------------------------|
D|--7-------7-------7---6-------6-------6----|
A|--5-5-5-5-5-5-5-5-5-5-5-5-5-5-5-5-5-5-5-0--|
E|-------------------------------------------|
      * * *   * * *   *   * * *   * * *   *

Guitar 2 fills
e|-------------------------|
B|-------------------------|
G|-------------------------|
D|--7-----------------7-8--|
A|--5-----------------5-5--|
E|-------------------------|

e|-------------------------|
B|-------------------------|
G|-------------------------|
D|--7-----------------7-6--|
A|--5-----------------5-5--|
E|-------------------------|



Riff 2 (Solo Rhythm)
e|-------------------------------------------|
B|-------------------------------------------|
G|-------------------------------------------|
D|--4-------4-------4---5-------5-------5----|
A|--2-2-2-2-2-2-2-2-2-2-2-2-2-2-2-2-2-2-2-2--|
E|-------------------------------------------|
      * * *   * * *   *   * * *   * * *   * 
e|-------------------------------------------|
B|-------------------------------------------|
G|-------------------------------------------|
D|--4-------4-------4---3-------3-------3----|
A|--2-2-2-2-2-2-2-2-2-2-2-2-2-2-2-2-2-2-2-2--|
E|-------------------------------------------|
      * * *   * * *   *   * * *   * * *   * 
e|-------------------------------------------|
B|-------------------------------------------|
G|-------------------------------------------|
D|--4-------4-------4---5-------5-------5----|
A|--2-2-2-2-2-2-2-2-2-2-2-2-2-2-2-2-2-2-2-2--|
E|-------------------------------------------|
      * * *   * * *   *   * * *   * * *   * 
e|-------------------------------------------|
B|-------------------------------------------|
G|-------------------------------------------|
D|--4-------4-------4---3-------3-----4-5-6--|
A|--2-2-2-2-2-2-2-2-2-2-2-2-2-2-2-2-2-2-3-4--|
E|-------------------------------------------|
      * * *   * * *   *   * * *   * *


Play Riff 1


Riff 2a
e|-------------------------------------------|
B|-------------------------------------------|
G|-------------------------------------------|
D|--4-------4-------4---5-------5-------5----|
A|--2-2-2-2-2-2-2-2-2-2-2-2-2-2-2-2-2-2-2-2--|
E|-------------------------------------------|
      * * *   * * *   *   * * *   * * *   * 
    "It's time to..."
e|-------------------------------------------|
B|-------------------------------------------|
G|-------------------------------------------|
D|--4-------4-------4---3-------3-------3----|
A|--2-2-2-2-2-2-2-2-2-2-2-2-2-2-2-2-2-2-2-2--|
E|-------------------------------------------|
      * * *   * * *   *   * * *   * * *   * 
    "...mind on a trip..."
e|-------------------------------------------|
B|-------------------------------------------|
G|-------------------------------------------|
D|--4-------4-------4---5-------5-------5----|
A|--2-2-2-2-2-2-2-2-2-2-2-2-2-2-2-2-2-2-2-2--|
E|-------------------------------------------|
      * * *   * * *   *   * * *   * * *   * 
    "Into the land of..."
e|-------------------------------------------|
B|-------------------------------------------|
G|-------------------------------------------|
D|--4-------4-------4---3-------3-------3----|
A|--2-2-2-2-2-2-2-2-2-2-2-2-2-2-2-2-2-2-2-2--|
E|-------------------------------------------|
      * * *   * * *   *   * * *   * * *   * 
    "..dreams and mist..."


Riff 3
e|-----------------------------|
B|-----------------------------|
G|-----------------------------|
D|--4----6----7----9----7---6--|
A|--2----4----5----7----5---4--|
E|-----------------------------|
    "Oh, is something..."
e|-------------------------------------------|
B|-------------------------------------------|
G|-------------------------------------------|
D|--3-------3-------3---4-------4-------4----|
A|--2-2-2-2-2-2-2-2-2-2-2-2-2-2-2-2-2-2-2-2--|
E|-------------------------------------------|
      * * *   * * *   *   * * *   * * *   *  
    "...wrong..."
e|-----------------------------|
B|-----------------------------|
G|-----------------------------|
D|--4----6----7----9----7---6--|
A|--2----4----5----7----5---4--|
E|-----------------------------|
    "They are lurking..."
e|-------------------------------------------|
B|-------------------------------------------|
G|-------------------------------------------|
D|--5-------5-------5---4-------4-------4----|
A|--3-3-3-3-3-3-3-3-3-3-3-3-3-3-3-3-3-3-3-3--|
E|-------------------------------------------|
      * * *   * * *   *   * * *   * * *   *  
    "...dark..."
e|-------------------------------------------|
B|-------------------------------------------|
G|-------------------------------------------|
D|--5-------5-------5---4-------4-----4-5-6--|
A|--3-3-3-3-3-3-3-3-3-3-3-3-3-3-3-3-3-2-3-4--|
E|-------------------------------------------|
      * * *   * * *   *   * * *   * * 


Play Riff 1    Solo Rhythm
Play Riff 2a   "Heavy breathing..."
Play Riff 3    "Oh, is something..."

Use this ending to the above Riff 3:
e|---------------------------------------------|
B|---------------------------------------------|
G|---------------------------------------------|
D|--5-------5-------5---4-------4-------4---6--|
A|--3-3-3-3-3-3-3-3-3-3-3-3-3-3-3-3-3-3-3-3-4--|
E|---------------------------------------------|
      * * *   * * *   *   * * *   * * *   *


Lead into next section:
e|---------------|
B|---------------|
G|---------------|
D|----7------7---|
A|------6------6-|
E|--5------5-----|


Riff 4
e|--------------------------------------|
B|--------------------------------------|
G|--------------------------------------|
D|--5--7---10-10-10--7----3-5-5-5--3-5--|
A|--3--5----8--7--8--5----1-3-3-3--1-3--|
E|--------------------------------------|

e|-----------------------------------|
B|-----------------------------------|
G|-----------------------------------|
D|--7---10-10-10--7----3-5-5-5--3-5--|
A|--5----8--7--8--5----1-3-3-3--1-3--|
E|-----------------------------------|


Riff 5
e|----------------------------------|
B|----------------------------------|
G|----------------------------------|
D|-9------------------12-12--12--9--|
A|-7------------------10--9--10--7--|
E|---0000000000000000---------------|
     ****************
e|--------------------------------|
B|--------------------------------|
G|--------------------------------|
D|------------------5-7-7-7--5-7--|
A|------------------3-5-5-5--3-5--|
E|-0000000000000000---------------|
   **************** 


Riff 6
e|--------------------------------|
B|--------------------------------|
G|--------------------------------|
D|--6----9-9-9--6----2-4-4-4--2-4-|
A|--4----7-6-7--4----0-2-2-2--0-2-|
E|--------------------------------|

e|--------------------------------|
B|--------------------------------|
G|--------------------------------|
D|--6----9-9-9--6----2-4-4-4--2-4-|
A|--4----7-6-7--4----0-2-2-2--0-2-|
E|--------------------------------|


Play Riff 1 (with guitar 2 fills)
Play Riff 2    Solo Rhythm
Play Riff 1    "How does it..."
Play Riff 2a   "They can see..."
Play Riff 3    "Oh, is something..."

Use this ending to the above Riff 3:
e|---------------------------------------------|
B|---------------------------------------------|
G|---------------------------------------------|
D|--5-------5-------5---4-------4-------4---6--|
A|--3-3-3-3-3-3-3-3-3-3-3-3-3-3-3-3-3-3-3-3-4--|
E|---------------------------------------------|
      * * *   * * *   *   * * *   * * *   *


Ending:
e|-----------------------------------|
B|-----------------------------------|
G|-----------------------------------|
D|---7------7------7------7----5--7--|
A|-----6------6------6------6--3--5--|
E|-5------5------5------5------------|

--------------------------------------------------------------

7. HALLOWEEN

Tuning: Standard


Intro
e|-------------------------------|
B|-------------------------------|
G|-------------------------------|
D|-2----3---2---0-2----3---5---7-|
A|-2----3---2---0-2----3---5---7-|
E|----0---0---0------0---0---0---|
      *   *   *      *   *   *
e|---------------------|
B|---------------------|
G|---------------------|
D|-2----3---2-----7--5-|
A|-2----3---2-----5--3-|
E|----0---0---0-0------|
      *   *   * *
           "Oh, it's Halloween!"



Riff 2
e|--------------------------|
B|--------------------------|
G|--------------------------|
D|-9----4----5----7----5----|
A|-7----2----3----5----3----|
E|--------------------------|
   "Every night..."
e|--------------------------|
B|--------------------------|
G|--------------------------|
D|-9----4---------7----5----|
A|-7----2----3----5----3----|
E|-----------1--------------|
   "...-ween..."
e|--------------------------|
B|--------------------------|
G|--------------------------|
D|-9----4---------7----5----|
A|-7----2----3----5----3----|
E|-----------1--------------|
   "...scene..."


Riff 1a
e|-------------------------------|
B|-------------------------------|
G|-------------------------------|
D|-2----3---2---0-2----3---5---7-|
A|-2----3---2---0-2----3---5---7-|
E|----0---0---0------0---0---0---|
      *   *   *      *   *   *
  "...mean..."
e|--------------------------|
B|--------------------------|
G|--------------------------|
D|-2----3---2-----7--5-2--2-|
A|-2----3---2-----5--3-0--0-|
E|----0---0---0-0-----------|
      *   *   * *


Riff 3
e|--------------------------------|
B|--------------------------------|
G|--------------------------------|
D|-4--4-4-4-5-4-2-4--4-4-4--7--9--|
A|-2--2-2-2-3-2-0-2--2-2-2--5--7--|
E|--------------------------------|
      * * *          * * *
   "Halloween..."
e|--------------------------------|
B|--------------------------------|
G|--------------------------------|
D|-4--4-4-4-5-4-2-4--4-4-4-4-4-4--|
A|-2--2-2-2-3-2-0-1--1-1-1-1-1-1--|
E|--------------------------------|
      * * *          * * * * * *
   "...you are my pride..."


Play Riff 1
Play Riff 2   "The moon is full..."


Riff 1b
e|-------------------------------|
B|-------------------------------|
G|-------------------------------|
D|-2----3---2---0-2----3---5---7-|
A|-2----3---2---0-2----3---5---7-|
E|----0---0---0------0---0---0---|
      *   *   *      *   *   *
   "...mean..."
e|--------------------------------|
B|--------------------------------|
G|--------------------------------|
D|-2----3---2---0-----------------|
A|-2----3---2---0---------0-2-3-5-|
E|----0---0---0---3-0-2-3---------|
      *   *   *


Riff 4 (Solo Rhythm)
e|--------------------------------------------------|
B|--------------------------------------------------|
G|--------------------------------------------------|
D|-9-9--2-4-5-7----12-12----9-9--2-4-5-7------------|
A|-7-7--0-2-3-5----10--9/10-7-7--0-2-3-5------------|
E|------------------------------------------0-3-0-5-|
                                            *   *
e|----------------------------------------------------|
B|----------------------------------------------------|
G|----------------------------------------------------|
D|-9-9--2-4-5-7----12-12----9-9--2-4-5-7--------------|
A|-7-7--0-2-3-5----10--9/10-7-7--0-2-3-5--------------|
E|------------------------------------------0-7-6-5-0-|
                                            * * * * *

Solo
e|------------------------------------------------| 
B|------------------------------------------------| 
G|---0h2p0-----------------------------2----------| 
D|--------------4h5p4p2p0-----0h2h4h5-----5p4p2---| 
A|------------------------------------------------| 
E|------------------------------------------------| 
   
e|----------------------------------------------------------| 
B|----------------------------------------------------------| 
G|----------------------------------------------------------| 
D|---4h5p2-----4h5p2v-----0h2---4--5--4-----2--4--0---------| 
A|--------------------------*---*--*--*-----*--*--*----0v*--| 
E|----------------------------------------------------------| 

e|---19--19--17---15--14h15--17---15h17p15--| 
B|------------------------------------------| 
G|------------------------------------------| 
D|------------------------------------------| 
A|------------------------------------------| 
E|------------------------------------------| 

e|---14h15p14---15h17p15----15p14----14--12---| 
B|--------------------------------------------| 
G|--------------------------------------------| 
D|--------------------------------------------| 
A|--------------------------------------------| 
E|--------------------------------------------| 

e|---------------------------------------------------| 
B|---15--13---12--12---------------------------------| 
G|--------------------------14---12-\11--------------| 
D|------------------------------------------12-------| 
A|-----------------------------------------------12v-| 
E|---------------------------------------------------| 

e|-----------------------------------------| 
B|-----------------------------------------| 
G|---------------12--------11---------14---| 
D|---7-/12--12-----------------------------| 
A|----------------------12--------12-------| 
E|-----------------------------------------| 

e|-----------------------------------------------------------| 
B|-----------------------------------------------------------| 
G|--------------16-------------------------------------------| 
D|-------------------------16--16---14v---------------12h14--| 
A|--------------------12------------------10---12p10---------| 
E|-10--12--10------------------------------------------------| 

e|--------------------------------------------------------------| 
B|----------------------------------------15h17---17---15--17v--| 
G|---12h14p12---12------------12h14-----------------------------| 
D|----------------------13h14-----------------------------------| 
A|--------------------------------------------------------------| 
E|--------------------------------------------------------------| 

e|---15p12h14p12---12p10---------------------------------| 
B|---------------------------13p12p10-/13p12p10----------| 
G|------------------------------------------------12-----| 
D|-------------------------------------------------------| 
A|-------------------------------------------------------| 
E|-------------------------------------------------------| 

e|---------------------------------17b19---19p17h19p17--| 
B|------------------------------------------------------| 
G|---11h12p11-------------------------------------------| 
D|-------------------12---------------------------------| 
A|------------------------12v---------------------------| 
E|------------------------------------------------------| 

e|---17b19---17h19p17----17b19---17h19p17--| 
B|-----------------------------------------| 
G|-----------------------------------------| 
D|-----------------------------------------| 
A|-----------------------------------------| 
E|-----------------------------------------| 

e|---17b19---17h19p17h19---15h19----21-b23-{23}-\---| 
B|--------------------------------------------------| 
G|--------------------------------------------------| 
D|--------------------------------------------------| 
A|--------------------------------------------------| 
E|--------------------------------------------------| 

End Solo


Play Riff 3   "Halloween..."


Riff 5 (Solo Rhythm)
e|------------------------------|
B|------------------------------|
G|------------------------------|
D|-6-------7-6-4-6---------9-11-|
A|-4--4-4--5-4-2-4--4-4-4--7--9-|
E|------------------------------|
      * *           * * *
e|--------------------------------|
B|--------------------------------|
G|--------------------------------|
D|-6-------7-6-4-6----------------|
A|-4--4-4--5-4-2-4------2-5-4-2-0-|
E|------------------0-5-----------|
      * *           * * 


Riff 6 (Solo Rhythm)
e|------------------------------|
B|------------------------------|
G|------------------------------|
D|------------------------------|
A|-6-------7-6-4-6---------9-11-|
E|-4--4-4--5-4-2-4--4-4-4--7--9-|
      * *           * * *
e|--------------------------------|
B|--------------------------------|
G|--------------------------------|
D|--------------------------------|
A|-6-------7-6-4-6------2-5-4-2-0-|
E|-4--4-4--5-4-2-4--0-5-----------|
      * *           * *

Solo
e:|---------------------------------------|
B:|---------------------------------------|
G:|--6/11b13--13/18b21--11h13-------------|
B:|------------------------------14-11v---|
A:|---------------------------------------|
E:|---------------------------------------|
 
e:|---------------------------------------------|
B:|--19-18-17-------------------------14--------|
G:|---------------18-17-16--14p11-/14----14-13v-|
D:|---------------------------------------------|
A:|---------------------------------------------|
E:|---------------------------------------------|
 
e:|----16----17----16----17----16v--21tr23--|
B:|-14----14----14----14----14--------------|
G:|-----------------------------------------|
D:|-----------------------------------------|
A:|-----------------------------------------|
E:|-----------------------------------------|
 
e:|--9-11-12--14-12-11--11b12----------------7---|
B:|------------------------------9v---7h9--9---9-|
G:|----------------------------------------------|
D:|----------------------------------------------|
A:|----------------------------------------------|
E:|----------------------------------------------|
 
e:|-------------------------------------------------|
B:|--9p7h9--7-------7b9-{7}-{7}-{7}-{7}-{7}-{7}r7p5-|
G:|-------------9p6---------------------------------|
D:|-------------------------------------------------|
A:|-------------------------------------------------|
E:|-------------------------------------------------|
 
e:|---------------------------------------------------|
B:|--7p5---5-----5----------------13-12/14--16h17p16--|
G:|------6---5h6---6p5p4------------------------------|
D:|----------------------6-6--------------------------|
A:|--------------------------4v-----------------------|
E:|---------------------------------------------------|
 
e:|-------------------------------------|
B:|-[12]14r12-9v--9h10p9---9-------9-9--|
G:|----------------------9---9p8h9------|
D:|-------------------------------------|
A:|-------------------------------------|
E:|-------------------------------------|
 
e:|-------------------------------|
B:|-------------------------------|
G:|----------------------------9--|
D:|-9p7p6--9p6v/---------------9--|
A:|-*-*-*--*-*-----------------7--|
E:|--------------7p5p4--7p4v/-----|
                 * * *  * *

End Solo
 

Play Riff 1
Play Riff 2   "Every night..."
Play Riff 1a
Play Riff 3   "Halloween..."


Riff 7
e|------------------------------|
B|------------------------------|
G|------------------------------|
D|------------------------------|
A|-5\4---------5\4---------2--5-|
E|-3\2-2-2-2-2-3\2--2-2-2--0--3-|
       * * * *      * * * 
                        "Halloween..."
e|----------------------------------|
B|----------------------------------|
G|----------------------------------|
D|--------------5--4----------------|
A|-5\4----------3--2------2-5-4-2-0-|
E|-3\2-2-2-2-2--------0-5-----------|
       * * * *


Play Riff 1

Ending:
e|-------------------|
B|-------------------|
G|-------------------|
D|-2----3---2----0-2-|
A|-2----3---2----0-2-|
E|----0---0---0------|
      *   *   *

------------------------------------------------------------

8. VOICES FROM THE PAST

Tuning: Standard


Riff 1
Guitar 1
e|---------------------------------|
B|---------------------------------|
G|---------------------------------|
D|---------------------------------|
A|---------------------------------|
E|-0-0-0-0-3-0-0-2-0-0-3-0-3-0-2-0-|
   * * * * * * * * * * * * * * * * 

Guitar 2 
e|---------------|
B|---------------|
G|---------------|
D|-12----12--9\--|
A|-10----10--7\--|
E|---------------|


Riff 2 
Guitar 1                          x2
e|---------------------------------|
B|---------------------------------|
G|---------------------------------|
D|---------------------------------|
A|---------------------------------|
E|-0-0-0-0-3-0-0-2-0-0-3-0-3-0-2-0-|
   * * * * * * * * * * * * * * * *
                                  x2
e|---------------------------------|
B|---------------------------------|
G|---------------------------------|
D|---------------------------------|
A|---------------------------------|
E|-3-3-3-3-6-3-3-5-3-3-6-3-6-3-5-3-|
   * * * * * * * * * * * * * * * *
                                  x2
e|---------------------------------|
B|---------------------------------|
G|---------------------------------|
D|---------------------------------|
A|-5-5-5-5-8-5-5-7-5-5-8-5-8-5-7-5-|
E|---------------------------------|
   * * * * * * * * * * * * * * * * 

Guitar 2    	                  x2
e|---------------------------------|
B|---------------------------------|
G|---------------------------------|
D|---------------------------------|
A|-2-2-2-2-5-2-2-4-2-2-5-2-5-2-4-2-|
E|---------------------------------|
   * * * * * * * * * * * * * * * *
                                  x2
e|---------------------------------|
B|---------------------------------|
G|---------------------------------|
D|---------------------------------|
A|-5-5-5-5-8-5-5-7-5-5-8-5-8-5-7-5-|
E|---------------------------------|
   * * * * * * * * * * * * * * * *
                                     x2
e|------------------------------------|
B|------------------------------------|
G|------------------------------------|
D|-7-7-7-7-10-7-7-9-7-7-10-7-10-7-9-7-|
A|------------------------------------|
E|------------------------------------|
   * * * *  * * * * * *  * *  * * * *


Riff 3
e|---------------------|
B|---------------------|
G|---------------------|
D|---------------------|
A|---------------------|
E|-2-2-2-2-2-2-2-2-...-|
   * * * * * * * *  
e|---------------------|
B|---------------------|
G|---------------------|
D|---------------------|
A|---------------------|
E|-5-5-5-5-5-5-5-5-...-|
   * * * * * * * * 
e|---------------------|
B|---------------------|
G|---------------------|
D|---------------------|
A|---------------------|
E|-3-3-3-3-3-3-3-3-...-|
   * * * * * * * *


Riff 4
Guitar 1                             x2
e|------------------------------------|
B|------------------------------------|
G|------------------------------------|
D|------------------------------------|
A|-7-7-7-7-10-7-7-9-7-7-10-7-10-7-9-7-|
E|------------------------------------|
   * * * *  * * * * * *  * *  * * * *
                                  x2
e|---------------------------------|
B|---------------------------------|
G|---------------------------------|
D|-5-5-5-5-8-5-5-7-5-5-8-5-8-5-7-5-|
A|---------------------------------|
E|---------------------------------|
   * * * * * * * * * * * * * * * *   x2
e|------------------------------------|
B|------------------------------------|
G|-7-7-7-7-10-7-7-9-7-7-10-7-10-7-9-7-|
D|------------------------------------|
A|------------------------------------|
E|------------------------------------|
   * * * *  * * * * * *  * *  * * * *

Guitar 2 (Comes in the 2nd time with guitar 1)
e|---------------------------------|
B|---------------------------------|
G|---------------------------------|
D|---------------------------------|
A|---------------------------------|
E|-0-0-0-0-3-0-0-2-0-0-3-0-3-0-2-0-|
   * * * * * * * * * * * * * * * *
                                  x2
e|---------------------------------|
B|---------------------------------|
G|---------------------------------|
D|---------------------------------|
A|---------------------------------|
E|-3-3-3-3-6-3-3-5-3-3-6-3-6-3-5-3-|
   * * * * * * * * * * * * * * * *
                                  x2
e|---------------------------------|
B|---------------------------------|
G|---------------------------------|
D|---------------------------------|
A|-5-5-5-5-8-5-5-7-5-5-8-5-8-5-7-5-|
E|---------------------------------|
   * * * * * * * * * * * * * * * *


Play Riff 3
Play Riff 4
Play Riff 3

Ending
e|-------------------------------------------------|
B|-------------------------------------------------|
G|-------------------------------------------------|
D|-------------------------------------------------|
A|-------------------------------------------------|
E|-3-3-3-3-3-3-3-3-3-3-3----3-3-3-3-3-3-3----3-3-3-|
   * * * * * * * * * * *    * * * * * * *    * * * 

---------------------------------------------------------------

9. HAUNTED

Tuning: Standard


Riff 1
e|---------------------------------------------|
B|---------------------------------------------|
G|---------------------------------------------|
D|-----------------------5-----4-----5---------|
A|-2-----3-----2---------5-----4-----5---------|
E|-0-0-0-0-0-0-0-0-0-0-0---0-0---0-0---0-0-0-0-|
     * *   * *   * * * *   * *   * *   * * * * 

Guitar 2 comes in with these chords:
e|--------------------|
B|--------------------|
G|--------------------|
D|--9--------4--------|
A|--7--------2--------|
E|--------------------|



Riff 2 (Acoustic)
e|-----------------------------|
B|-----------------------------|
G|-----------------------------|
D|-----4-----4-----4-----4---4-|
A|---2-----0-----2-----0-------|
E|-0-----2-----0-----2-----3---|

e|-----------------------------|
B|-----------------------------|
G|-----------------------------|
D|-----4-----4-----4-----4---4-|
A|---2-----0-----2-----0-------|
E|-0-----2-----0-----2-----3---|

(Distortion)
e|--------|
B|--------|
G|--------|
D|-2------|
A|-0------|
E|----3-2-|
      * * 


Play Riff 1


Riff 3
e|-------0---------|
B|-----------------|
G|-----------------|
D|--9---------4----|
A|--7---------2----|
E|--0--------------|
    "Stay away..."                                
e|---------------------------------------------------|
B|---------------------------------------------------|
G|-5-----4-----2---------5-----4-----2-----0---------|
D|-5-----4-----2---------5-----4-----2-----0---------|
A|---0-0---0-0---0-0-0-0---0-0---0-0---0-0---0-0-0-0-|
E|---------------------------------------------------|
     * *   * *   * * * *   * *   * *   * *   * * * *
   "Molly's soul keeps returning..."
e|---------------------------------------------------|
B|---------------------------------------------------|
G|-5-----4-----2---------5-----4-----2-----0---------|
D|-5-----4-----2---------5-----4-----2-----0---------|
A|---0-0---0-0---0-0-0-0---0-0---0-0---0-0---0-0-0-0-|
E|---------------------------------------------------|
     * *   * *   * * * *   * *   * *   * *   * * * *
   "...every night, to the attic...


Play Riff 1   "...shrine..."
Play Riff 2
Play Riff 1
Play Riff 3   "Never alone..."
Play Riff 1   " '...why ?' "


Riff 4
e|------------------|
B|------------------|
G|------------------|
D|-11----12----7----|
A|--9----10----5----|
E|------------------|
   "The house is forever haunted..."
                                              x2
e|---------------------------------------------|
B|---------------------------------------------|
G|---------------------------------------------|
D|-----------------------5-----4-----5---------|
A|-2-----3-----2---------5-----4-----5---------|
E|-0-0-0-0-0-0-0-0-0-0-0---0-0---0-0---0-0-0-0-|
     * *   * *   * * * *   * *   * *   * * * * 
   "...do..."
e|------------|
B|------------|
G|------------|
D|-12----7----|
A|-10----5----|
E|------------|
   "Molly is living there..."
e|------------------------------|
B|------------------------------|
G|------------------------------|
D|-4----2----4----4--------4--3-|
A|-2----0----2----1--------2--1-|
E|------------------------------|
    "...dolls..."


Riff 5 (Solo Rhythm)
e|-----------------------------------------|
B|-----------------------------------------|
G|-----------------------------------------|
D|-5----7------------9----------11/12-11\9-|
A|-3----5------------7-----------9/10--9\7-|
E|-----------0-0-0-0----0-0-0-0------------|
             * * * *    * * * * 
e|-------------------------|
B|-------------------------|
G|-------------------------|
D|-5----9----7------4----4-|
A|-3----7----5------2----2-|
E|----------------0----0---|
                  *    * 

Solo
e|-----------------------------------------------------|
B|------------------------p--------------7-8-7-8---\/\-|
G|-------------------5-4-5-4----------7-9--------9-----|
D|-----------------h---------7-5-7-7-9-----------------|
A|----------------5-7----------------------------------|
E|-----------------------------------------------------|

e|-10-8-7-------------------------------(-/\/--7-8-7---|
B|--------10-8-7-10-8-7-10-8-7--/\/-8-10------------10-|
G|-----------------------------9-----------------------|
D|-----------------------------------------------------|
A|-----------------------------------------------------|
E|-----------------------------------------------------|
               p       p       p     p
e|-7---(-p---17-14---14-11---11-8---8-5-/\/\/----------|
B|---10---8-------16------13-----10----7---------------|
G|---------9------------------------------------12-14--|
D|-------------------------------------------/14-------|
A|-----------------------------------------------------|
E|-----------------------------------------------------|

e|------p--h-------------------------------------------|
B|-12-13-12-13--------------h--p-----------------------|
G|------------14-12-11-12-11-12-11---------------------|
D|--------------------------------14-------------------|
A|----------------------------------/12/10/9\10--------|
E|-----------------------------------------------------|
    P.M-------                                   end solo
e|------------------------------(---(---------/\/\--/\/|
B|-----------------8----/\/\--10--10--8-10-8-7---------|
G|----------------7-7-9------9--------------------8-9--|
D|-----------5-7/9-------------------------------------|
A|--9-7-5-7-9------------------------------------------|
E|-----------------------------------------------------|

End Solo


Play Riff 1   "Ah..."
Play Riff 3   "Stay away..."
Play Riff 1   "...insane..."
Play Riff 4   "The house is forever..."

Riff 6 (Solo Rhythm)                          x4                   
e|---------------------------------------------|
B|---------------------------------------------|
G|---------------------------------------------|
D|-----------------------5-----4-----5---------|
A|-2-----3-----2---------5-----4-----5---------|
E|-0-0-0-0-0-0-0-0-0-0-0---0-0---0-0---0-0-0-0-|
     * *   * *   * * * *   * *   * *   * * * *      x2
e|---------------------------------------------------|
B|---------------------------------------------------|
G|-5-----4-----2---------5-----4-----2-----0---------|
D|-5-----4-----2---------5-----4-----2-----0---------|
A|---0-0---0-0---0-0-0-0---0-0---0-0---0-0---0-0-0-0-|
E|---------------------------------------------------|
     * *   * *   * * * *   * *   * *   * *   * * * * 
                                              x2
e|---------------------------------------------|
B|---------------------------------------------|
G|---------------------------------------------|
D|-----------------------5-----4-----5---------|
A|-2-----3-----2---------5-----4-----5---------|
E|-0-0-0-0-0-0-0-0-0-0-0---0-0---0-0---0-0-0-0-|
     * *   * *   * * * *   * *   * *   * * * * 


Solo    Harm.
e|-----------------------------------------------------|
B|----bend up and down with trem and then up 2 steps---|
G|-------5---------------------------------------------|
D|-----------------------------------------------------|
A|-----------------------------------------------------|
E|-----------------------------------------------------|

e|-----------------------------------------------------|
B|---------------------------------------15-17--15-17--|
G|------------------------14-16--14-16-17-----17-------|
D|------------14--14-16-17-----17----------------------|
A|----14-15-17--17-------------------------------------|
E|--17-------------------------------------------------|

e|-15-17-19-(trill 19-22 and slowly gradually with trem|
B|-----------------------------------------------------|
G|-----------------------------------------------------|
D|-----------------------------------------------------|
A|-----------------------------------------------------|
E|-----------------------------------------------------|

e|-22/24--19-22-19----19-------------------------------|
B|-----------------22----22-19-22-19--(-19---(p--------|
G|----------------------------------21-----21--19---19-|
D|-----------------------------------------------21----|
A|-----------------------------------------------------|
E|-----------------------------------------------------|
   A.H
e|-----------------------------------------------------|
B|-----------------------------------------------------|
G|-21\--14-17--14--------------------------------------|
D|-----------17--17-16-17-16-14--16-14--14-------------|
A|-----------------------------17-----17--17-15-14-15--|
E|-----------------------------------------------------|

e|-----------------------------------------------------|
B|-----------------------------------------------------|
G|-----------------------------------------------------|
D|-----------------------------------------------------|
A|-14-----/\/\-----------------------------------------|
E|---17-17-----10-12-14-10-12-14-15-17-14-15-17-15-17--|

e|------------------------------------------------------|
B|-----------------------------------------------------|
G|------------------------------16-16-16-16-12-12-12-12|
D|------------------------(--(-------------------------|
A|--14-15---14-15-17-15-17-17--------------------------|
E|--------17-------------------------------------------|

e|-----------------------------------------------------|
B|--------------------------------------------------\/\|
G|-17-17-17-17-14-14-14-14--19--16---21--16-16-16-16---|
D|-----------------------------------------------------|
A|-----------------------------------------------------|
E|-----------------------------------------------------|

Bend trem slightly while playing
e|-----------------------------------------------------|
B|---p---h-p--h--p--h--p--h--p-h--h--p----\/\/---------|
G|-19-16-17-14-16-12-14-11-12-9-11-12-9/21-------------|
D|-----------------------------------------------------|
A|-----------------------------------------------------|
E|-----------------------------------------------------|

End Solo

Ending:
Guitar 1 (Acoustic)
e|-----------------------------|
B|-----------------------------|
G|-----------------------------|
D|-----4-----4-----4-----4---4-|   Fades out
A|---2-----0-----2-----0-------|
E|-0-----2-----0-----2-----3---|


Guitar 2 (Distortion)
e|----------------------------------|
B|----------------------------------|
G|----------------------------------|
D|----------------------------------|
A|----------------------------------|
E|-0--2--0--2--3~----0--2--0--2--3~-|

e|----------------------------------|
B|----------------------------------|
G|----------------------------------|
D|-------------------2--4--2--4--5~-|
A|-2--4--2--4--5~-------------------|
E|----------------------------------|

e|----------------------------|
B|----------------------------|
G|----------------------------|
D|-2--4--2--4--5~--[fade out]-|
A|----------------------------|
E|----------------------------|

------------------------------------------------------------

10. NO PRESENTS FOR CHRISTMAS

Tuning: Standard


"Jingle Bells" (clean)
e|----------------------------|
B|----------------------------|
G|----------------------------|
D|----------------------------|
A|-7-7-7--7-7-7--7-10---5-5/7-|
E|--------------------8-------|

e|-----------------------------------|
B|-----------------------------------|
G|-----------------------------------|
D|---------------------------------5-|
A|-7h8-8-8--8-8-7-7--7-7-7-5-5-7-5---|
E|-----------------------------------|

"I Saw Mommy Kissing Santa Claus" (clean)
e|------------------------------------------|
B|------------------------------------------|
G|------------5-4---------------------------|
D|--------5-7-----5------7-7-5-----/7-5-----|
A|----5-7-----------7--7-------7--------7-3-|
E|--8----------------------------8----------|


Lead into next section (Distortion):
e|---------------|
B|---------------|
G|---------------|
D|--4------------|
A|--2------------|
E|-----------X\\-|


Riff 1  (Solo Rhythm)
e|----------------------------------------|
B|----------------------------------------|
G|----------------------------------------|
D|----------------------------------4-5-6-|
A|----------------------------------2-3-4-|
E|-0h2-222222-0h2-222222-0h2-222222-------|
       ******     ******     ******
e|--------------------------------------------|
B|--------------------------------------------|
G|--------------------------------------------|
D|--------------------------------------------|
A|--------------------------------------------|
E|-0h2-222222-0h2-222222-0h2-222222-3p2p0-2-3-|
       ******     ******     ******   
  

Lead into next section:
e|-----------------------------------------|
B|-----------------------------------------|
G|-----------------------------------------|
D|----------------------------------2--2---|
A|-2h4-444444-2h4-444444-2h4-444444-2--0-5-|
E|---------------------------------------3-|
       ******     ******     ******
   
Riff 2    
e|--------------------------------------------|
B|--------------------------------------------|
G|--------------------------------------------|
D|-7h9--------7h9--------7h9-10--9--12--10--7-|
A|-7----------7----------7----7--7---7---7--7-|
E|-----000000-----000000----------------------|
       ******     ****** 
                        "Christmas time..."
e|------------------------------------------|
B|------------------------------------------|
G|------------------------------------------|
D|-7h9--------7h9--------7h9--------7--5--7-|
A|-7----------7----------7----------5--5--5-|
E|-----000000-----000000-----000000---------|
       ******     ******     ******
   "...again..."


Play Riff 1   "He cannot find..."


Riff 3
e|--------------------------------|
B|--------------------------------|
G|--------------------------------|
D|----7--7--7-9-----12--12--12-12-|
A|----5--5--5-7-----10--10---9-10-|
E|-0-------------0----------------|
   *             *
   "There's no presents..."
e|-------------------------------|
B|-------------------------------|
G|---------------------0-------0-|
D|----7--7--7-9------0-------0---|
A|----5--5--5-7----0-------0-----|
E|-0-------------2-------3-------|
   *
   "There's no presents..."
e|----------------------------------|
B|----------------------------------|
G|----------------------------------|
D|----7--7--7-9-----12--12--12-12---|
A|----5--5--5-7-----10--10---9-10-0-|
E|-0-------------0------------------|
   *             *
   "Tom and Jerry..."
e|-----------------|
B|-----------------|
G|-----------------|
D|-5--12--12--5--7-|
A|-3--10---9--3--5-|
E|-----------------|
   "They don't give a damn."


Play Riff 1

Lead into next section:
e|-----------------------------------------|
B|-----------------------------------------|
G|-----------------------------------------|
D|----------------------------------2--2---|
A|-2h4-444444-2h4-444444-2h4-444444-2--0-5-|
E|---------------------------------------3-|
       ******     ******     ******


Play Riff 2   "Christmas time is here again..."
Play Riff 1   "It's getting very very late..."
Play Riff 3   "There's no presents..."


Riff 4 (Solo Rhythm)    
e|---------------------------------------------|
B|---------------------------------------------|
G|---------------------------------------------|
D|-------5-------9---8-------5-----------------|
A|---5h7---7~----7---7---5h7---7~--------------|
E|-0-----------0---0---0-----------0--7--6-5-3-|
   *           *   *   *           *     * *


"I Saw Mommy Kissing Santa Claus" (clean)
e|------------------------------------------|
B|------------------------------------------|
G|------------5-4---------------------------|
D|--------5-7-----5------7-7-5-----/7-5-----|
A|----5-7-----------7--7-------7--------7-3-|
E|--8----------------------------8----------|


Lead into next section (Distorion):
e|------------|
B|------------|
G|------------|
D|-4--2-------|
A|-2--0--5--4-|
E|-------3--2-|


Play Riff 2   Solo Rhythm
Play Riff 1   Solo Rhythm
Play Riff 3   "There's no presents..."


"Rudolph" ( * indicates a whammy bar ) (clean)
e|-----------------------------------------------------------------|
B|-----------------------------------------------------------------|
G|-----------------------------------------------------------------|
D|---------7-----------------7-6*----------6-4----------------9-7*-|
A|-7-9-7-----9-7*--7-9-7-9-7-------5-7-5--------7*--7-9-7-9-7------|
E|-------9-------------------------------7-------------------------|

e|------------------------------------------------------------------|
B|------------------------------------------------------------------|
G|------------------------------------------------------------------|
D|-------7*-------------/4---------------7-6*-6*-6*--7-7--6---------|
A|-7-9-9----9-7---7*--5----7-5-4*----5/9--------------------9-7-5---|
E|--------------9------------------7------------------------------7-|


"I'm dreaming of a white sabbath..." (clean)
e|--------------------|
B|--------------------|
G|--------------------|
D|----------------4-5-|
A|--7--8-7-6-7-8------|
E|--------------------|


Ending (Distortion)
e|-------------------------|
B|-------------------------|
G|-------------------------|
D|-------5-------9---8--9\-|
A|---5h7---7~----7---7--7\-|
E|-0-----------0---0-------|
   *           *   *                  

------------------------------------------------------------

11. THE LAKE

Tuning: Standard

Intro
e|-------|
B|-------|
G|-------|
D|-------|
A|--5-4--|
E|--3-2--|



Riff 1 (Solo Rhythm)
e|-------------------------------------|
B|-------------------------------------|
G|-------------------------------------|
D|---2--0h4-4---4---4---4---4--------2-|
A|-4-0--0h2-2-222-222-222-222-20--4--0-|
E|-2------------------------------2----|
              **  **  **  **  **
e|-----------------------------|
B|-----------------------------|
G|-----------------------------|
D|-0h4-4---4---4-2-------6/7-6-|
A|-0h2-2-222-222-0--0-00-4/5-4-|
E|-----------------------------|
         **  **     * **
e|--------------------------------|
B|--------------------------------|
G|--------------------------------|
D|-0h4-4---4---4---4---4--------2-|
A|-0h2-2-222-222-222-222-20--4--0-|
E|---------------------------2----|
         **  **  **  **  **
e|----------------|
B|----------------|
G|----------------|
D|-0h4-4--------4-|
A|-0h2-2-20--6--2-|
E|-----------4----|
         **


Solo
e|---------------------------------|
B|---------------------------------|
G|---------------------------------|
D|----------/4~--------------------|
A|-5-4-2~--------5-4-2~------4h5-4-|
E|-----------------------5\--------|

e|------------------------------|
B|------------------------------|
G|------------------------------|
D|------/4~---------------------|
A|-2~--------5-7-9~---4--6-6/7~-|
E|------------------------------|

End Solo


Riff 2
e|--------------------------------|
B|--------------------------------|
G|--------------------------------|
D|-4/6-6---6---6---6---6--------4-|
A|-2/4-4-444-444-444-444-44--6--2-|
E|---------------------------4----|
         **  **  **  **  **
   "It is Sunday morning..."
e|---------------------------|
B|---------------------------|
G|---------------------------|
D|-4/6-6---6---6-4--4/-8/9-8-|
A|-2/4-4-444-444-2--2/-6/7-6-|
E|---------------------------|
         **  **
   "...just before dawn..."
e|--------------------------------|
B|--------------------------------|
G|--------------------------------|
D|-4/6-6---6---6---6---6--------4-|
A|-2/4-4-444-444-444-444-44--6--2-|
E|---------------------------4----|
         **  **  **  **  **
   "A little girl is dancing..."
e|------------------------------------|
B|------------------------------------|
G|-----------------7--6-------7--6----|
D|-4/6-6---6---6---------7----------7-|
A|-2/4-4-444-444-5----------5---------|
E|---------------3----------3---------|
         **  ** 
   "...on the mansion porch..."


Riff 1a
e|--------------------------------|
B|--------------------------------|
G|--------------------------------|
D|-0h4-4---4---4---4---4--------2-|
A|-0h2-2-222-222-222-222-20--4--0-|
E|---------------------------2----|
         **  **  **  **  **
   "She calls out a name..."
e|-----------------------------|
B|-----------------------------|
G|-----------------------------|
D|-0h4-4---4---4-2-------6/7-6-|
A|-0h2-2-222-222-0--0-00-4/5-4-|
E|-----------------------------|
         **  **     * **
   " 'God give him the sea.' "
e|--------------------------------|
B|--------------------------------|
G|--------------------------------|
D|-0h4-4---4---4---4---4--------2-|
A|-0h2-2-222-222-222-222-20--4--0-|
E|---------------------------2----|
         **  **  **  **  **
   "I'm here from the darkest deep..."
e|-----------------------------------|
B|-----------------------------------|
G|-----------------5--4------5--4----|
D|-0h4-4---4---4---------5---------5-|
A|-0h2-2-222-222-3---------3---------|
E|---------------1---------1---------|
         **  **
   "And hear my name..."


Riff 3
e|-------------------------------|
B|-------------------------------|
G|-------------------------------|
D|-7--7-7-7-7-7-7--7-7-7-7-7-6---|
A|-5--5-5-5-5-5-4--4-4-4-4-5-4-0-|
E|-------------------------------|
      * * * * *    * * * 
   "Down by the lake..."
e|-----------------------------|
B|-----------------------------|
G|-----------------------------|
D|-4--4-4-4-4-4-4-4-4-4-4-4--7-|
A|-2--2-2-2-2-2-2-2-2-2-2-2--4-|
E|-----------------------------|
      * * * * * * * * * *
   "...grief..."
e|-----------------------------------|
B|-----------------------------------|
G|-----------------------------------|
D|-7--7-7-7-7---2--2-2-2-2-2-2-2-----|
A|-5--5-5-5-5-0-0--0-0-0-0-0-0-0--5--|
E|--------------------------------3--|
      * * * * *    * * * * * * *
   "Dancing hand in hand with the Devil..."


Play Riff 1    Solo Rhythm
Play Riff 2    "Watching from the bridge..."
Play Riff 1a   "Yes, we all know..."
Play Riff 3    "Down by the lake..."

Lead into next section:
e|--------|
B|--------|
G|--------|
D|--------|
A|--7--5--|
E|--5--3--|



Riff 4 (Solo Rhythm)
e|---------------------------|
B|---------------------------|
G|---------------------------|
D|-----------------2-------5-|
A|-2h4---------2h4-0-4-----3-|
E|-0h2-2-2-2-2-0h2---2-2-2---|
       * * * *         * * 
e|------------------------|
B|------------------------|
G|------------------------|
D|-----------------4-5----|
A|-2h4---------2h4-2-3--3-|
E|-0h2-2-2-2-2-0h2------1-|
       * * * * 

Riff 5 (Solo Rhythm)
e|---------------------------|
B|---------------------------|
G|---------------------------|
D|-2h4---------2h4-2h4-----7-|
A|-0h2-2-2-2-2-0h2-0h2-2-2-5-|
E|---------------------------|
       * * * *         * * 
e|---------------------------|
B|---------------------------|
G|---------------------------|
D|-2h4---------2h4-----------|
A|-0h2-2-2-2-2-0h2-3-3--3-3--|
E|-------------------1----1--|
       * * * *
e|---------------------------|
B|---------------------------|
G|---------------------------|
D|-2h4---------2h4-2h4-----7-|
A|-0h2-2-2-2-2-0h2-0h2-2-2-5-|
E|---------------------------|
       * * * *         * * 
e|-------------------------------|
B|-------------------------------|
G|-------------------------------|
D|-2h4---------2h4--9-8-7--9-8-7-|
A|-0h2-2-2-2-2-0h2--7-6-5--7-6-5-|
E|-------------------------------|
       * * * *


Play Riff 4   Solo Rhythm
Play Riff 5   Solo Rhythm

Riff 6
e|---------------|
B|---------------|
G|---------------|
D|-5--------3----|
A|-3--------1----|
E|---------------|
   "And the nun has been..." 
e|-----------------------------|
B|-----------------------------|
G|-----------------------------|
D|---------10------------------| -----|
A|----------8----------------5-|      |
E|-0-0-0-0-----0-0-0-0-5-6-7---|      |
   * * * *     * * * *                |
   "...seen..."                       |--- Play 2x
e|-----------------------------|      |
B|-----------------------------|      |
G|-----------------------------| -----|
D|---------10------------------|
A|----------8----7-5---5-------|
E|-0-0-0-0-----0-----7---7-6-5-|
   * * * *     *  
   "I want your cross..."

e|------------------------------------|
B|------------------------------------|
G|------------------------------------|
D|------------------------------------|
A|---7-5---5---------7-5---5--------4-|
E|-0-----7---7-6-5-0-----7---7-6-5--2-|
   *               *
   "...Margaret..."

      
Play Riff 1   Solo Rhythm
Play Riff 2   "Full of pride..."
Play Riff 1a  "The little girl..."
Play Riff 3   "Down by the lake..."


notation:
^   =  bend [ ^ = half, ^^ = whole, etc. ]
^r  =  bend and release
x   =  mute with fret-hand
*   =  mute with palm-hand
X\\ =  pick slide
h   =  hammer-on
p   =  pull-off
~   =  vibrato
t   =  tap-on
/   =  slide up
\   =  slide down
h.  =  harmonics
ah  =  artificial harmonic
(9) =  ghost note
tm  =  trem picking
tr  =  trill


comments
We did not receive enough feedback on this tab! Please rate:
print report bad tab
1 2 3 4 5
I want to post or [tab]
guest
You may want to rate the tab now too:
select rating
Please do not post tabs as comments. Select "correction" instead!