Oops, an error
Loading. Please wait.

The Puppet Master Tab

ver1
ver1

Album

Whole song

More versions @911Tabs.com
1,820 views 1 this week
no commentswrite comment
1 2 3 4 5
please rate
Autoscroll
+/-
esc
set tempo
stop
Contributor
WARNING: You are trying to view
                                    content from Ultimate-Guitar.com
                                    in an unauthorized application,
                                    which is prohibited.

                                    Please use an official Ultimate
                                    Guitar Tabs application for iPhone,
                                    iPad or Android to access legitimate
                                    chords, guitar, bass, and drum tabs
                                    from Ultimate-Guitar.com database.

                                    Type "ultimate guitar tabs" in Apple
                                    App Store's or Android Market's
                                    search to find the application.
Band - King Diamond
Album - The Puppet Master

Track Listing:
1. Midnight
2. The Puppet Master
3. Magic
4. Emerencia
5. Blue Eyes
6. The Ritual
7. No More Me
8. Blood To Walk
9. Darkness
10. So Sad
11. Christmas
12. Living Dead

------------------------------------------
1. MIDNIGHT

Tuning: Standard

Riff 1
Guitar 1
e|-----------------------|
B|-----------------------|
G|-----------------------|
D|-5----3--------5----6--|
A|-3----1--------3----4--|
E|-----------------------|
  "Midnight..."
e|---------------------------|
B|---------------------------|
G|---------------------------|
D|-5----3------------5----6--|
A|-3----1----1-1-1-1-3----4--|
E|---------------------------|
             * * * *
  "Midnight..."

Guitar 2
e|------------------------------------|
B|------------------------------------|
G|------------------------------------|
D|-5-----------------5----------------|
A|-3----5----5-6-5---3----7--6--4-6-7-|
E|-----------------6------------------|

e|------------------------------------|
B|------------------------------------|
G|------------------------------------|
D|-5-----------------5----------------|
A|-3----5----5-6-5---3----7--6--4-6-7-|
E|-----------------6------------------|
             * * * *


Riff 2
Guitar 1
e|-------------------------------|
B|-------------------------------|
G|-------------------------------|
D|-------------------------------|
A|------------------------4-6-4--|
E|-4----6-7-6--------2-----------|
  "I'm thinking back..."
e|-------------------------------|
B|-------------------------------|
G|-------------------------------|
D|-------------------------------|
A|-------------------4------6-4--|
E|-4----6-7-6--------------------|
  "Free of misery..."

Guitar 2
e|-------------------------------|
B|-------------------------------|
G|-------------------------------|
D|-------------------------------|
A|------------------------4-6-4--|
E|-4----6-7-6--------2-----------|

e|-------------------------------|
B|-------------------------------|
G|-------------------------------|
D|-------------------------------|
A|------------------------4-6-4--|
E|-4----6-7-6--------2-----------|


Play Riff 1   "Midnight..."
Play Riff 2   "I'm thinking back..."


Ending                        x4
e|-----------------------------|
B|-----------------------------|
G|-----------------------------|
D|-5----6--5--------5----6--5--|
A|-3----4--3--------3----4--3--|
E|-3----------------3----------|
       "Midnight!"      "Midnight!"

-----------------------------------------------

2. THE PUPPET MASTER

Tuning: Standard

Intro (Solo Rhythm)
e|---------------------------------------------|
B|---------------------------------------------|
G|---------------------------------------------|
D|---------------------------------------------|
A|---------------------------------------------|
E|-6p3-3333-6p3-3333-6-3-5p2-2222-5p2-2222-5-2-|
       ****     ****         ****     ****
e|-----------------------------------|
B|-----------------------------------|
G|-----------------------------------|
D|---------------------------0-1--0--|
A|-------------------------0---------|
E|-6p3-3333-6p3-3333-6-3-2-----------|
       ****     ****


Solo
e|-------------------------------------|
B|-------------------------------------|
G|-------------------------------------|
D|-------------------------------------|
A|-------------------------------------|
E|-------------------------------------|

e|-------------------------------------|
B|-------------------------------------|
G|-------------------------------------|
D|-------------------------------------|
A|-------------------------------------|
E|-------------------------------------|

End Solo


Riff 1
Guitar 1
e|---------------------------------------------|
B|---------------------------------------------|
G|---------------------------------------------|
D|---------------------------------------------|
A|---------------------------------------------|
E|-6p3-3333-6p3-3333-6-3-5p2-2222-5p2-2222-5-2-|
       ****     ****         ****     ****
   "Night time in Budapest..."
e|-----------------------------------|
B|-----------------------------------|
G|-----------------------------------|
D|---------------------------0-1--0--|
A|-------------------------0---------|
E|-6p3-3333-6p3-3333-6-3-2-----------|
       ****     ****
   "So many people..."

Guitar 2
e|---------------------------------------------|
B|---------------------------------------------|
G|---------------------------------------------|
D|---------------------------------------------|
A|---------------------------------------------|
E|-6p3-3333-6p3-3333-6-3-5p2-2222-5p2-2222-5-2-|
       ****     ****         ****     ****
e|-----------------------------------|
B|-----------------------------------|
G|-----------------------------------|
D|---------------------------0-------|
A|-------------------------0---6--5--|
E|-6p3-3333-6p3-3333-6-3-2-----6--5--|
       ****     ****



Riff 1a
e|---------------------------------------------|
B|---------------------------------------------|
G|---------------------------------------------|
D|---------------------------------------------|
A|---------------------------------------------|
E|-8p5-5555-8p5-5555-8-5-7p4-4444-7p4-4444-7-4-|
       ****     ****         ****     ****
   "Darkness without a glow..."
e|-----------------------------------|
B|-----------------------------------|
G|-----------------------------------|
D|---------------------------0-------|
A|-------------------------1---------|
E|-8p5-5555-8p5-5555-8-5-3-----1--0--|
       ****     ****
   "What a night..."




Riff 2 
Guitar 1
e|---------------------------------------|
B|---------------------------------------|
G|---------------------------------------|
D|-7--------8------------7--------8------|
A|-5--------5------------5--------5------|
E|-5-------------6-6-6-6-5-------------6-|
                 * * * *
  "...show!"                 "What a magical..."
e|---------------------------------------|
B|---------------------------------------|
G|---------------------------------------|
D|-5--------6------------5--------6------|
A|-3--------3------------3--------3------|
E|-3-------------4-4-4-4-3-------------4-|
                 * * * *
  "Dancing at the end..."
e|---------------------------------------|
B|---------------------------------------|
G|---------------------------------------|
D|-7--------8------------7--------8------|
A|-5--------5------------5--------5------|
E|-5-------------6-6-6-6-5-------------6-|
                 * * * *
  "Like children with..."

Guitar 2
e|----------------------------------------------|
B|----------------------------------------------|
G|----------------------------------------------|
D|----------5------------------------5--7-8-7---|
A|-5----7-8----8-7--7-8-7---5----7-8----------5-|
E|------------------------8---------------------|

e|----------------------------------------------|
B|----------------------------------------------|
G|----------------------------------------------|
D|----------3------------------------3--5-6-5---|
A|-3----5-6----6-5--5-6-5---3----5-6----------3-|
E|------------------------6---------------------|

e|----------------------------------------------|
B|----------------------------------------------|
G|----------------------------------------------|
D|----------5------------------------5--7-8-7---|
A|-5----7-8----8-7--7-8-7---5----7-8----------5-|
E|------------------------8---------------------|


Lead into next section:
Guitar 1
e|--------------|
B|--------------|
G|--------------|
D|------0-1--0--|
A|----0---------|
E|--2-----------|

Guitar 2
e|--------------|
B|--------------|
G|--------------|
D|------0-5--4--|
A|----0---------|
E|--2-----------|



Play Riff 1    "Night time in Budapest..."
Play Riff 1a   "Gas lamps..."
Play Riff 2    "...rise!"



Riff 3
Guitar 1
e|-------------------------------|
B|-------------------------------|
G|-------------------------------|
D|-------------------------------|
A|---4-4---5---4-----4-4---5---4-|
E|-2-----2---2---5-2-----2---2---|
   * * * * * * * * * * * * * *
            "Shhh..."
e|---------------------------------|
B|---------------------------------|
G|---------------------------------|
D|-------------------------------2-|
A|---4-4---5---4-------2-4-2-4-5---|
E|-2-----2---2---5-4-5-------------|
   * * * * * * * * * * * * * * * *
   "Here come the puppets..."

Last time:
e|---------------------------------|
B|---------------------------------|
G|---------------------------------|
D|-------------------------------2-|
A|---4-4---5---4-------2-4-2-4-5---|
E|-2-----2---2---5-4-5-------------|
   * * * * * * * *
   "He pulls one more..."


Guitar 2                    x2
e|---------------------------|
B|---------------------------|
G|-11-------11--------9----7-|
D|---------------------------|
A|--9--------9--------7----5-|
E|---------------------------|
  "Shhhh, here come the puppets..."
                            x2
e|---------------------------|
B|---------------------------|
G|-6--------6--------9----7--|
D|---------------------------|
A|-4--------4--------7----5--|
E|---------------------------|
  "...wing, then they start to..."
e|---------------------------|
B|---------------------------|
G|-11-----------------9----7-|
D|---------------------------|
A|--9-----------------7----5-|
E|---------------------------|
  "...walkway..."
e|---------------------------|
B|---------------------------|
G|-6-----------------9----7--|
D|---------------------------|
A|-4-----------------7----5--|
E|---------------------------|
  "...up goes a leg..."


 

Riff 4 (Solo Rhythm)
e|-------------------------------|
B|-------------------------------|
G|-------------------------------|
D|-------------------------------|
A|---4-4---5---4-----4-4---5---4-|
E|-2-----2---2---5-2-----2---2---|
   * * * * * * * * * * * * * *
e|---------------------------------|
B|---------------------------------|
G|---------------------------------|
D|-------------------------------2-|
A|---4-4---5---4-------2-4-2-4-5---|
E|-2-----2---2---5-4-5-------------|
   * * * * * * * *
e|-------------------------------|
B|-------------------------------|
G|-------------------------------|
D|-------------------------------|
A|---6-6---7---6-----6-6---7---6-|
E|-4-----4---4---7-4-----4---4---|
   * * * * * * * * * * * * * *
e|---------------------------------|
B|---------------------------------|
G|---------------------------------|
D|-------------------------------4-|
A|---6-6---7---6-------4-6-4-6-7---|
E|-4-----4---4---7-6-7-------------|
   * * * * * * * *
e|-------------------------------|
B|-------------------------------|
G|-------------------------------|
D|-------------------------------|
A|---4-4---5---4-----4-4---5---4-|
E|-2-----2---2---5-2-----2---2---|
   * * * * * * * * * * * * * *
e|---------------------------------|
B|---------------------------------|
G|---------------------------------|
D|-------------------------------2-|
A|---4-4---5---4-------2-4-2-4-5---|
E|-2-----2---2---5-4-5-------------|
   * * * * * * * *
e|-----------------|
B|-----------------|
G|-----------------|
D|---------------2-|
A|-----2-4-2-4-5---|
E|-4-5-------------|

Harmony guitar over last bar of solo rhythm:
e|-----------------|
B|-----------------|
G|---------------6-|
D|-7-6-4---4-6-7---|
A|-------7---------|
E|-----------------|


Solo
e|-------------------------------------|
B|-------------------------------------|
G|-------------------------------------|
D|-------------------------------------|
A|-------------------------------------|
E|-------------------------------------|

e|-------------------------------------|
B|-------------------------------------|
G|-------------------------------------|
D|-------------------------------------|
A|-------------------------------------|
E|-------------------------------------|

e|-------------------------------------|
B|-------------------------------------|
G|-------------------------------------|
D|-------------------------------------|
A|-------------------------------------|
E|-------------------------------------|

e|-------------------------------------|
B|-------------------------------------|
G|-------------------------------------|
D|-------------------------------------|
A|-------------------------------------|
E|-------------------------------------|

End Solo



Riff 5
Guitar 1
e|--------------|
B|--------------|
G|--------------|
D|--------------|
A|-5----4----3--|
E|--------------|
  "No strings..."

Guitar 2
e|--------------|
B|--------------|
G|--------------|
D|-4~---3~---2~-|
A|--------------|
E|--------------|

Guitar 3
e|--------------|
B|--------------|
G|--------------|
D|-7----6----5--|
A|--------------|
E|--------------|



Lead into Riff 6                  x2
e|---------------------------------|
B|---------------------------------|
G|---------------------------------|
D|-7-7-7-7-7-7-7-7-8-8-8-8-8-8-8-8-|
A|-5-5-5-5-5-5-5-5-5-5-5-5-5-5-5-5-|
E|---------------------------------|
   * * * * * * * * * * * * * * * *


Riff 6
Guitar 1
e|---------------------------------|
B|---------------------------------|
G|---------------------------------|
D|-7-7-7-7-7-7-7-7-8-8-8-8-8-8-8-8-|
A|-5-5-5-5-5-5-5-5-5-5-5-5-5-5-5-5-|
E|---------------------------------|
   * * * * * * * * * * * * * * * *
  "I take a look..."
e|--------------------------------|
B|--------------------------------|
G|--------------------------------|
D|-7-7-7-7-7-7-7-7-8-8-8-8-8-8-8--|
A|-5-5-5-5-5-5-5-5-5-5-5-5-5-5-8--|
E|--------------------------------|
   * * * * * * * * * * * * * *
  "...boy, up on the stage..."
e|---------------------------------|
B|---------------------------------|
G|---------------------------------|
D|-7-7-7-7-7-7-7-7-8-8-8-8-8-8-8-8-|
A|-5-5-5-5-5-5-5-5-5-5-5-5-5-5-5-5-|
E|---------------------------------|
     * * * * * * * * * * * * * * *
    "I think he looked..."
e|--------------------|
B|--------------------|
G|--------------------|
D|-7-7-7-7-7-7-7-7-8--|
A|-5-5-5-5-5-5-5-5-5--|
E|--------------------|
     * * * * * * *
    "...is he alive?"

Guitar 2
e|---------------------------------|
B|---------------------------------|
G|---------------------------------|
D|---------------------------------|
A|-5-5-8-5-5-8-5-8-5-5-7-5-5-7-7-7-|
E|---------------------------------|
   * *   * *   *   * *   * *
e|---------------------------------|
B|---------------------------------|
G|---------------------------------|
D|---------------------5-----5-5-5-|
A|-5-5-8-5-5-8-5-8-5-5---5-5-------|
E|---------------------------------|
   * *   * *   *   * *   * *
e|---------------------------------|
B|---------------------------------|
G|---------------------------------|
D|---------------------------------|
A|-5-5-8-5-5-8-5-8-5-5-7-5-5-7-7-7-|
E|---------------------------------|
   * *   * *   *   * *   * *
e|--------------------|
B|--------------------|
G|--------------------|
D|-----------------5--|
A|-5-5-8-5-5-8-5-8----|
E|--------------------|
   * *   * *   *



Riff 6a
Guitar 1                          x3
e|---------------------------------|
B|---------------------------------|
G|---------------------------------|
D|-7-----7-----7---8-----8-----8---|
A|-5-5-5-5-5-5-5-5-5-5-5-5-5-5-5-5-|
E|---------------------------------|
     * *   * *   *   * *   * *   *
   "I get a little..."
e|-------------------------------------|
B|-------------------------------------|
G|-------------------------------------|
D|-7-----7-----7---8------------0-1--0-|
A|-5-5-5-5-5-5-5-5-5----------0--------|
E|--------------------------2----------|
     * *   * *   *
   "I see a little cut..."

Guitar 2
e|---------------------------------|
B|---------------------------------|
G|---------------------------------|
D|---------------------------------|
A|-5-5-8-5-5-8-5-8-5-5-7-5-5-7-7-7-|
E|---------------------------------|
   * *   * *   *   * *   * *
e|---------------------------------|
B|---------------------------------|
G|---------------------------------|
D|---------------------5-----5-5-5-|
A|-5-5-8-5-5-8-5-8-5-5---5-5-------|
E|---------------------------------|
   * *   * *   *   * *   * *
e|---------------------------------|
B|---------------------------------|
G|---------------------------------|
D|---------------------------------|
A|-5-5-8-5-5-8-5-8-5-5-7-5-5-7-7-7-|
E|---------------------------------|
   * *   * *   *   * *   * *
e|-------------------------------------|
B|-------------------------------------|
G|-------------------------------------|
D|-----------------5------------0-1--0-|
A|-5-5-8-5-5-8-5-8------------0--------|
E|--------------------------2----------|
   * *   * *   *



Play Riff 1   Solo Rhythm
Play Riff 1a  Solo Rhythm
Play Riff 2   Solo Rhythm


Solo
e|-------------------------------------|
B|-------------------------------------|
G|-------------------------------------|
D|-------------------------------------|
A|-------------------------------------|
E|-------------------------------------|

e|-------------------------------------|
B|-------------------------------------|
G|-------------------------------------|
D|-------------------------------------|
A|-------------------------------------|
E|-------------------------------------|

e|-------------------------------------|
B|-------------------------------------|
G|-------------------------------------|
D|-------------------------------------|
A|-------------------------------------|
E|-------------------------------------|

e|-------------------------------------|
B|-------------------------------------|
G|-------------------------------------|
D|-------------------------------------|
A|-------------------------------------|
E|-------------------------------------|

End Solo


Lead into next section:
Guitar 1
e|--------------|
B|--------------|
G|--------------|
D|------0-1--0--|
A|----0---------|
E|--2-----------|

Guitar 2
e|--------------|
B|--------------|
G|--------------|
D|------0-5--4--|
A|----0---------|
E|--2-----------|



Play Riff 1    "Night time in Budapest..."
Play Riff 1a   "But we love them all..."
Play Riff 2    "...more!"


Ending:
Guitar 1
e|-------------------------------|
B|-------------------------------|
G|-------------------------------|
D|-------------------------------|
A|---4-4---5---4-----4-4---5---4-|
E|-2-----2---2---5-2-----2---2---|
   * * * * * * * * * * * * * *
   "The show has come..."
e|---------------------------------|
B|---------------------------------|
G|---------------------------------|
D|-------------------------------2-|
A|---4-4---5---4-------2-4-2-4-5---|
E|-2-----2---2---5-4-5-------------|
   * * * * * * * * * * * * * * * *
     "The master himself..."
e|-------------------------------|
B|-------------------------------|
G|-------------------------------|
D|-------------------------------|
A|---4-4---5---4-----4-4---5---4-|
E|-2-----2---2---5-2-----2---2---|
   * * * * * * * * * * * * * *
   "...stage, with his children..."
e|---------------------------------|
B|---------------------------------|
G|---------------------------------|
D|-------------------------------2-|
A|---4-4---5---4-------2-4-2-4-5---|
E|-2-----2---2---5-4-5-------------|
   * * * * * * * *
  "The curtain must fall..."

Guitar 2
e|---------------------------|
B|---------------------------|
G|-11-----------------9----7-|
D|---------------------------|
A|--9-----------------7----5-|
E|---------------------------|
    "The show has come..."
e|---------------------------|
B|---------------------------|
G|-6-----------------9----7--|
D|---------------------------|
A|-4-----------------7----5--|
E|---------------------------|
    "...stage, with his children..."

---------------------------------------------

3. MAGIC

Tuning: Standard


Riff 1
e|---------------------------------|
B|---------------------------------|
G|---------------------------------|
D|---------------------------------|
A|-4---------4---5---------5-4-2-0-|
E|-2-2-2-2-2---2---2-2-2-2---------|
     * * * *   *   * * * * 
e|---------------------------------|
B|---------------------------------|
G|---------------------------------|
D|---------------------------------|
A|-4---------4---5~--4-------------|
E|---0-0-0-0---0-------7-5-4-5-7-0-|
     * * * *   *
e|---------------------------------|
B|---------------------------------|
G|---------------------------------|
D|---------------------------------|
A|-4---------4---5---------5-4-2-0-|
E|-2-2-2-2-2---2---2-2-2-2---------|
     * * * *   *   * * * *
e|---------------|
B|---------------|
G|---------------|
D|---------------|
A|-7----2--------|
E|-5----0----5-4-|


Riff 1a
Guitar 1  plays Riff 1

Guitar 2
e|---------------------------------|
B|---------------------------------|
G|---------------------------------|
D|-7---------7---9---------9-7-6---|
A|---0-0-0-0---0---0-0-0-0-------9-|
E|---------------------------------|
     * * * *   *   * * * *
e|-----------------------------------|
B|-----------------------------------|
G|-----------------------------------|
D|-6---------6-----------------------|
A|---0-0-0-0---0-9~--7---------------|
E|---------------------10-9-7-9-10-0-|
     * * * *   *
e|---------------------------------|
B|---------------------------------|
G|---------------------------------|
D|-7---------7---9---------9-7-6---|
A|---0-0-0-0---0---0-0-0-0-------9-|
E|---------------------------------|
     * * * *   *   * * * *
e|---------------|
B|---------------|
G|---------------|
D|-7----6----7-6-|
A|---------------|
E|---------------|



Riff 2
Guitar 1
e|-------------------------|
B|-------------------------|
G|-------------------------|
D|-------------------------|
A|-5--4--3--------2--------|
E|-------------------3--0--|

Guitar 2
e|-------------------------|
B|-------------------------|
G|-------------------------|
D|-7--6--5--------4--------|
A|-------------------5--2--|
E|-------------------------|



Riff 3
Guitar 1
e|-------------------------------------|
B|-------------------------------------|
G|-------------------------------------|
D|-------------------------------------|
A|-10----9----10----5--7--5--7--5-5--5-|
E|--0----0-----0----3--5--3--5--3-3--3-|
                                * *  *
   "In the darkness..."
e|------------------------------------|
B|------------------------------------|
G|------------------------------------|
D|------------------5--7--9--12--11-7-|
A|-10----9----10----3--5--7--10---9-5-|
E|--0----0-----0----------------------|
   "All the people..."

Guitar 2
e|-------------------------------------|
B|-------------------------------------|
G|-------------------------------------|
D|-------------------------------------|
A|-10----9----10----5--7--5--7--5-5--5-|
E|--0----0-----0----3--5--3--5--3-3--3-|
                                * *  *
e|-----------------------------------|
B|-----------------------------------|
G|-----------------------------------|
D|------------------5--7--9--12------|
A|-10----9----10-----------------9-5-|
E|--0----0-----0---------------------|


Riff 4
e|------------------------|
B|------------------------|
G|------------------------|
D|------------------------|
A|-0-4--0-4--4-4-0-4--0-4-|
E|-0-2--0-2--2-2-0-2--0-2-|
  "Oh..."
e|----------------------|
B|----------------------|
G|----------------------|
D|----------------------|
A|-4-4-0-4--0-4--0-4-5--|
E|-2-2-0-2--0-2--0-2-3--|
  "...was magic I know!"
e|------------------------|
B|------------------------|
G|------------------------|
D|------------------------|
A|-0-4--0-4--4-4-0-4--0-4-|
E|-0-2--0-2--2-2-0-2--0-2-|
    "This night was..."
e|-----------------------------------|
B|-----------------------------------|
G|-----------------------------------|
D|-----------------------5-----7-----|
A|-4-4-0-4--0-4--0-4---5-----7-----5-|
E|-2-2-0-2--0-2--0-2-3-----5-----3---|
   "I never saw the..."



Riff 5
e|-------------------|
B|-------------------|
G|-------------------|
D|-4----5----0---2---|
A|-2----2----0---0---|
E|-------------------|
   "I will never..."
e|---------------------------|
B|---------------------------|
G|---------------------------|
D|-4----5----7----2----------|
A|-2----2----5----0----0-5-4-|
E|---------------------------|
                       *
   "I saw the magic..."

Final time:
e|-------------------------|
B|-------------------------|
G|-------------------------|
D|-4----5----7----2--------|
A|-2----2----5----0----5-4-|
E|-------------------------|


Play Riff 4   Solo Rhythm

Solo
e|-------------------------------------|
B|-------------------------------------|
G|-------------------------------------|
D|-------------------------------------|
A|-------------------------------------|
E|-------------------------------------|

e|-------------------------------------|
B|-------------------------------------|
G|-------------------------------------|
D|-------------------------------------|
A|-------------------------------------|
E|-------------------------------------|

e|-------------------------------------|
B|-------------------------------------|
G|-------------------------------------|
D|-------------------------------------|
A|-------------------------------------|
E|-------------------------------------|

e|-------------------------------------|
B|-------------------------------------|
G|-------------------------------------|
D|-------------------------------------|
A|-------------------------------------|
E|-------------------------------------|

End Solo


Play Riff 2
Play Riff 3   "In the darkness..."
Play Riff 4   "Oh..."
Play Riff 5   Solo Rhythm

Solo
e|-------------------------------------|
B|-------------------------------------|
G|-------------------------------------|
D|-------------------------------------|
A|-------------------------------------|
E|-------------------------------------|

e|-------------------------------------|
B|-------------------------------------|
G|-------------------------------------|
D|-------------------------------------|
A|-------------------------------------|
E|-------------------------------------|

e|-------------------------------------|
B|-------------------------------------|
G|-------------------------------------|
D|-------------------------------------|
A|-------------------------------------|
E|-------------------------------------|

e|-------------------------------------|
B|-------------------------------------|
G|-------------------------------------|
D|-------------------------------------|
A|-------------------------------------|
E|-------------------------------------|

End Solo


Play Riff 1
Play Riff 1a
Play Riff 2


Riff 6 (Let notes ring)
Guitar 1
e|------------------------------------|
B|------------------------------------|
G|-----0------7-6--------0------------|
D|---6------5----------6------9-------|
A|-4-----------------4--------7----9--|
E|---------------------------------7--|
   "Suddenly, I feel so cold..."

Guitar 2
e|------------------------------------|
B|------------------------------------|
G|-----0------7-6--------0------------|
D|---6------5----------6------9----9--|
A|-4-----------------4--------7----6--|
E|------------------------------------|


Play Riff 4   "Oh..."
Play Riff 5   "I will never..."

--------------------------------------------------

4. EMERENCIA

Tuning: Standard

Intro (Guitar 2 plays notes in () )
e|---------------------------------|
B|---------------------------------|
G|---------------------------------|
D|---------------------------------|
A|-6----(6)--------6-5----(6-5)----|
E|---------------------------------|


Riff 1
Guitar 1
e|--------------------------------------------------|
B|--------------------------------------------------|
G|--------------------------------------------------|
D|--------------------------------------------------|
A|--------------------------------------------------|
E|-4--------5--4--------5--2--------5--4--------11\-|

Guitar 2
e|--------------------------------------------------|
B|--------------------------------------------------|
G|--------------------------------------------------|
D|----------------------------------7--6------------|
A|-6--------7--6--------7--9------------------------|
E|----------------------------------------------11\-|


Riff 2
e|-------------------------------|
B|-------------------------------|
G|-------------------------------|
D|-------------------------------|
A|-----------------------------7-|
E|-4-44-44-444-4-444-44-44-444-5-|
   * ** ** *** * *** ** ** ***
          "Hiding where..."
e|-------------------------------|
B|-------------------------------|
G|-------------------------------|
D|-------------------------------|
A|-----------------------------7-|
E|-4-44-44-444-4-444-44-44-444-5-|
   * ** ** *** * *** ** ** ***
          "A door opens..."
e|-------------------------------|
B|-------------------------------|
G|-------------------------------|
D|-------------------------------|
A|-----------------------------7-|
E|-2-22-22-222-2-222-22-22-222-5-|
   * ** ** *** * *** ** ** ***
        "The moon is..."
e|-------------------------------|
B|-------------------------------|
G|-------------------------------|
D|-------------------------------|
A|-------------------------------|
E|-4-44-44-444-4-444-44-44-444-4-|
   * ** ** *** * *** ** ** *** *
        "Three hundred pounds..."


Riff 3
e|--------------------------------|
B|--------------------------------|
G|--------------------------------|
D|-6------------------------------|
A|------------------------------7-|
E|-4---------------4-44-44-4444-5-|
                   * ** ** ****
           "Oh, it's the..."
e|--------------------------------|
B|--------------------------------|
G|--------------------------------|
D|-6------------------------------|
A|------------------------------7-|
E|-4---------------4-44-44-4444-5-|
                   * ** ** ****
           "She pulls a cart..."
e|-------------------------------|
B|-------------------------------|
G|-------------------------------|
D|-------------------------------|
A|--------------4-4---------4--7-|
E|-2-22-22-2222-2-2-2-22-22-2--5-|
   * ** ** ****     * ** **
     "Oh, Emerencia..."
e|----------------------------------|
B|----------------------------------|
G|----------------------------------|
D|---------------------------6------| <-- Guitar 2 only plays
A|--------------6-6----------4----7-| <-- root note of the last
E|-4-44-44-4444-4-4-44444444------5-| <-- two chords
   * ** ** ****     ********
    "Where are you going..."



Riff 4 (Solo Rhythm)
Guitar 1
e|-------------------------------------|
B|-------------------------------------|
G|-------------------------------------|
D|-------------------7--9--10--9--7--5-|
A|-2--4--5--2--4--5--7--9--10--9--7--5-|
E|-0--2--3--0--2--3--------------------|
   *  *  *  *  *  *
e|-----------------------------|
B|-----------------------------|
G|-----------------------------|
D|-------------------9--10--7--|
A|-2--4--5--2--4--5--9--10--7--|
E|-0--2--3--0--2--3------------|
   *  *  *  *  *  *
e|-------------------------------------|
B|-------------------------------------|
G|-------------------------------------|
D|-------------------------------------|
A|-2--4--5--2--4--5--------------------|
E|-0--2--3--0--2--3--5--7---8--7--5--3-|
   *  *  *  *  *  *
e|-------------------------------|
B|-------------------------------|
G|-------------------------------|
D|-------------------------------|
A|-2--4--5--2--4--5--------------|
E|-0--2--3--0--2--3--7--5--3--2--|
   *  *  *  *  *  *
e|-------------------------------------|
B|-------------------------------------|
G|-------------------------------------|
D|-------------------7--9--10--9--7--5-|
A|-2--4--5--2--4--5--7--9--10--9--7--5-|
E|-0--2--3--0--2--3--------------------|
   *  *  *  *  *  *
e|-----------------------------|
B|-----------------------------|
G|-----------------------------|
D|-------------------9--10--7--|
A|-2--4--5--2--4--5--9--10--7--|
E|-0--2--3--0--2--3------------|
   *  *  *  *  *  *

Guitar 2
e|-------------------------------------|
B|-------------------------------------|
G|-------------------------------------|
D|-------------------------------------|
A|-2--4--5--2--4--5--------------------|
E|-0--2--3--0--2--3--5--7---8--7--5--3-|
   *  *  *  *  *  *
e|-----------------------------|
B|-----------------------------|
G|-----------------------------|
D|-----------------------------|
A|-2--4--5--2--4--5------------|
E|-0--2--3--0--2--3--7---8--5--|
   *  *  *  *  *  *
e|-------------------------------------|
B|-------------------------------------|
G|-------------------------------------|
D|-------------------7--9--10--9--7--5-|
A|-2--4--5--2--4--5--7--9--10--9--7--5-|
E|-0--2--3--0--2--3--------------------|
   *  *  *  *  *  *
e|------------------------------|
B|------------------------------|
G|------------------------------|
D|-------------------9--7--5--4-|
A|-2--4--5--2--4--5--9--7--5--4-|
E|-0--2--3--0--2--3-------------|
   *  *  *  *  *  *
e|-------------------------------------|
B|-------------------------------------|
G|-------------------------------------|
D|-------------------------------------|
A|-2--4--5--2--4--5--------------------|
E|-0--2--3--0--2--3--5--7---8--7--5--3-|
   *  *  *  *  *  *
e|-----------------------------|
B|-----------------------------|
G|-----------------------------|
D|-----------------------------|
A|-2--4--5--2--4--5------------|
E|-0--2--3--0--2--3--7---8--5--|
   *  *  *  *  *  *


Riff 1a (Solo Rhythm)
Guitar 1
e|------------------------------------------|
B|------------------------------------------|
G|------------------------------------------|
D|------------------------------------------|
A|------------------------------------------|
E|-4--------5--4--------5--2--------5--4----|

Guitar 2
e|------------------------------------------|
B|------------------------------------------|
G|------------------------------------------|
D|----------------------------------7--6----|
A|-6--------7--6--------7--9----------------|
E|------------------------------------------|



Solo
e|-------------------------------------|
B|-------------------------------------|
G|-------------------------------------|
D|-------------------------------------|
A|-------------------------------------|
E|-------------------------------------|

e|-------------------------------------|
B|-------------------------------------|
G|-------------------------------------|
D|-------------------------------------|
A|-------------------------------------|
E|-------------------------------------|

e|-------------------------------------|
B|-------------------------------------|
G|-------------------------------------|
D|-------------------------------------|
A|-------------------------------------|
E|-------------------------------------|

e|-------------------------------------|
B|-------------------------------------|
G|-------------------------------------|
D|-------------------------------------|
A|-------------------------------------|
E|-------------------------------------|

End Solo



Play Riff 3    "Time to kill..."
Play Riff 4    "Deep in the night..."


Riff 5 (Arranged for guitars)
Guitar 1
e|-----------------------------------|
B|-----------------------------------|
G|-----------------------------------|
D|-----------------------------------|
A|-7--7-6-5-4--4-5-4-3--3----5--5----|
E|-----------------------------------|
   "How strange it is..."
e|-----------------------------------|
B|-----------------------------------|
G|-----------------------------------|
D|-----------------------------------|
A|-7--7-6-5-4--4-5-4-3--3----2--2----|
E|-----------------------------------|
   "How strange it is..."

Guitar 2
e|---------------------------------------------------|
B|---------------------------------------------------|
G|-9--9-11-12-14--14-12-14-16--16-17-16-14--14-12-14-|
D|---------------------------------------------------|
A|---------------------------------------------------|
E|---------------------------------------------------|

e|---------------------------------------------------|
B|---------------------------------------------------|
G|-9--9-11-12-14--14-12-14-12--12-14-12-11--11-12-11-|
D|---------------------------------------------------|
A|---------------------------------------------------|
E|---------------------------------------------------|


Riff 5 (Solo Rhythm, arranged for guitars)
Guitar 1
e|-----------------------------------|
B|-----------------------------------|
G|-----------------------------------|
D|-----------------------------------|
A|-7--7-6-5-4--4-5-4-3--3----5--5----|
E|-----------------------------------|

e|-----------------------------------|
B|-----------------------------------|
G|-----------------------------------|
D|-----------------------------------|
A|-7--7-6-5-4--4-5-4-3--3----2--2----|
E|-----------------------------------|

Guitar 2
e|---------------------------------------------------|
B|---------------------------------------------------|
G|-9--9-11-12-14--14-12-14-16--16-17-16-14--14-12-14-|
D|---------------------------------------------------|
A|-7--7--9-10-12--12-10-12-14--14-15-14-12--12-10-12-|
E|---------------------------------------------------|

e|---------------------------------------------------|
B|---------------------------------------------------|
G|-9--9-11-12-14--14-12-14-12--12-14-12-11--11-12-11-|
D|---------------------------------------------------|
A|-7--7--9-10-12--12-10-12-10--10-12-10--9---9-10--9-|
E|---------------------------------------------------|


Solo
e|----------------------------------------------|
B|----12--10-------------15-15-10---------------|
G|-9---------12-11~--12------------12-11-9~--11-|
D|----------------------------------------------|
A|----------------------------------------------|
E|----------------------------------------------|

e|--------------------------------------------|
B|-13-13-----------10~--8--/17-15--13-12-10~--|
G|-------12--11-12----------------------------|
D|--------------------------------------------|
A|--------------------------------------------|
E|--------------------------------------------|

e|----------------------------------------------|
B|----12--10-------------15-15-10---------------|
G|-9---------12-11~--12------------12-11-9~--11-|
D|----------------------------------------------|
A|----------------------------------------------|
E|----------------------------------------------|

e|------------------------(/19~)--| <-- Harmony note
B|-13-13-----------10~--8--/20~---|
G|-------12--11-12----------------|
D|--------------------------------|
A|--------------------------------|
E|--------------------------------|

End Solo



Riff 2a (Guitar 2 plays notes in () )
e|-------------------------|
B|-------------------------|
G|-------------------------|
D|-------------------------|
A|-----------------------7-|
E|-4444-44----4444-44----5-|
   **** **    **** **
      "Through the streets..."
e|-------------------------|
B|-------------------------|
G|-------------------------|
D|-------------------------|
A|-----------------------7-|
E|-4444-44----4444-44----5-|
   **** **    **** **
      "Through the streets..."
e|-------------------------|
B|-------------------------|
G|-------------------------|
D|-------------------------|
A|-----------(4)---------7-|
E|-2222-22----2----------5-|
   **** **
      "Only the moon..."
e|---------------------------|
B|---------------------------|
G|---------------------------|
D|---------------------------|
A|-----------(6)-------------|
E|-4444-44----4---------/11\-|
   **** **
      "And none of us..."


Play Riff 2   "She pulls the body..."
Play Riff 3   Solo Rhythm

Solo
e|-------------------------------------|
B|-------------------------------------|
G|-------------------------------------|
D|-------------------------------------|
A|-------------------------------------|
E|-------------------------------------|

e|-------------------------------------|
B|-------------------------------------|
G|-------------------------------------|
D|-------------------------------------|
A|-------------------------------------|
E|-------------------------------------|

e|-------------------------------------|
B|-------------------------------------|
G|-------------------------------------|
D|-------------------------------------|
A|-------------------------------------|
E|-------------------------------------|

e|-------------------------------------|
B|-------------------------------------|
G|-------------------------------------|
D|-------------------------------------|
A|-------------------------------------|
E|-------------------------------------|

End Solo


Play Riff 4   "Deep in the night..."

-----------------------------------------------------------------

5. BLUE EYES

Tuning: Standard


Riff 1
e|---------------------------|
B|---------------------------|
G|---------------------------|
D|------9-9\--4-4--5-5--5--4-|
A|-2-2--7-7\--3-3--3-3--3--3-|
E|-0-0-----------------------|

e|----------------------------|
B|----------------------------|
G|----------------------------|
D|------9-9\--4-4--5-5--5/7-7-|
A|-2-2--7-7\--3-3--3-3--3/5-5-|
E|-0-0------------------------|



Play Riff 1   "I'm stone cold..."


Riff 2
e|-----------------------------|
B|-----------------------------|
G|-----------------------------|
D|------12-12\--7-7--8-8--8--7-|
A|-5-5--10-10\--6-6--6-6--6--6-|
E|-3-3-------------------------|
       "My hands are..."
e|--------------------------------|
B|--------------------------------|
G|--------------------------------|
D|------12-12\--7-7--8-8--8/10-10-|
A|-5-5--10-10\--6-6--6-6--6/-8--8-|
E|-3-3----------------------------|
       "An iron chain..."


Play Riff 1   "...all..."


Riff 3
Guitar 1
e|----------------------------------|
B|----------------------------------|
G|----------------------------------|
D|----------------------------------|
A|----------------------------------|
E|-3----6----5----6--2--3---6----5--|
    "My eyes are..."
e|----------------------------------|
B|----------------------------------|
G|----------------------------------|
D|--------------------------7----6--|
A|--------------------------5----4--|
E|-3----6----5----6--2--3-----------|
    "My eyes are..."

Guitar 2
e|----------------------------------|
B|----------------------------------|
G|----------------------------------|
D|----------------------------------|
A|-5----8----7----8--4--5---8----7--|
E|-3----6----5----6--2--3---6----5--|

e|----------------------------------|
B|----------------------------------|
G|----------------------------------|
D|--------------------------7----6--|
A|-5----8----7----8--4--5---5----4--|
E|-3----6----5----6--2--3---5----4--|



Riff 4
Guitar 1
e|------------------------------|
B|------------------------------|
G|------------------------------|
D|------------------------------|
A|-5-5--5-8-8--8-7-7--7-8-8-4-4-|
E|-3-3--3-6-6--6-5-5--5-6-6-2-2-|
   * *  * * *  * * *  * * * * *
    "Full of skeletons..."
e|------------------|
B|------------------|
G|------------------|
D|------------------|
A|-5-5--5-8-8--8-7--|
E|-3-3--3-6-6--6-5--|
   * *  * * *  * *
   "...dressed in human..."
e|------------------------------|
B|------------------------------|
G|------------------------------|
D|------------------------------|
A|-5-5--5-8-8--8-7-7--7-8-8-4-4-|
E|-3-3--3-6-6--6-5-5--5-6-6-2-2-|
   * *  * * *  * * *  * * * * *
   "They're sitting..."
e|------------------------------------|
B|------------------------------------|
G|------------------------------------|
D|------------------------------------|
A|-5-5--5-8-8--8-7----------7---7-----|
E|-3-3--3-6-6--6-5--------6---6----6\-|
   * *  * * *  * *
   "...cellar full of..."

Guitar 2
e|------------------------------|
B|------------------------------|
G|------------------------------|
D|------------------------------|
A|-5-5--5-8-8--8-7-7--7-8-8-4-4-|
E|-3-3--3-6-6--6-5-5--5-6-6-2-2-|
   * *  * * *  * * *  * * * * *
e|------------------|
B|------------------|
G|------------------|
D|------------------|
A|-5-5--5-8-8--8-7--|
E|-3-3--3-6-6--6-5--|
   * *  * * *  * *
e|----------------------------------------|
B|----------------------------------------|
G|----------------------------------------|
D|----------------------------------------|
A|-5-5--5-12-12--12-11-11--11-12-12-11-11-|
E|-3-3--3-10-10--10--9--9---9-10-10--9--9-|
   * *  *  *  *   *  *  *   *  *  *  *  *
e|-------------------------------------------|
B|-------------------------------------------|
G|-------------------------------------------|
D|-------------------------------------------|
A|-12-12--12-15-15--15-14----------7---7-----|
E|-10-10--10-13-13--13-12--------6---6----6\-|
    *  *   *  *  *   *  *


Riff 5
e|-------------------|
B|-------------------|
G|-------------------|
D|-[key board]-------|
A|-------------------|
E|----------------0--|

e|-------------------|
B|-------------------|
G|-------------------|
D|-7----5----3-------|
A|-7----5----3----2--|
E|----------------0--|
   "So many puppets..."


Riff 5a
Guitar 1
e|----------------------------------|
B|----------------------------------|
G|----------------------------------|
D|-7----5----3----------------------|
A|-7----5----3----2----7----2----7--|
E|----------------0----5----0----5--|
  "There are eyes..."

Guitar 2
e|----------------------------------|
B|----------------------------------|
G|----------------------------------|
D|-7----5----3----------------------|
A|-7----5----3----7----0----7----0--|
E|----------------------------------|



Play Riff 1   Solo Rhythm

Solo
e|-------------------------------------|
B|-------------------------------------|
G|-------------------------------------|
D|-------------------------------------|
A|-------------------------------------|
E|-------------------------------------|

e|-------------------------------------|
B|-------------------------------------|
G|-------------------------------------|
D|-------------------------------------|
A|-------------------------------------|
E|-------------------------------------|

e|-------------------------------------|
B|-------------------------------------|
G|-------------------------------------|
D|-------------------------------------|
A|-------------------------------------|
E|-------------------------------------|

e|-------------------------------------|
B|-------------------------------------|
G|-------------------------------------|
D|-------------------------------------|
A|-------------------------------------|
E|-------------------------------------|

End Solo

Play Riff 2   "My hands are tied..."
Play Riff 1   Solo Rhythm
Play Riff 3   Solo Rhythm

Solo
e|-------------------------------------|
B|-------------------------------------|
G|-------------------------------------|
D|-------------------------------------|
A|-------------------------------------|
E|-------------------------------------|

e|-------------------------------------|
B|-------------------------------------|
G|-------------------------------------|
D|-------------------------------------|
A|-------------------------------------|
E|-------------------------------------|

e|-------------------------------------|
B|-------------------------------------|
G|-------------------------------------|
D|-------------------------------------|
A|-------------------------------------|
E|-------------------------------------|

e|-------------------------------------|
B|-------------------------------------|
G|-------------------------------------|
D|-------------------------------------|
A|-------------------------------------|
E|-------------------------------------|

End Solo


Play Riff 4   "Full of skeletons..."


Riff 6
e|-------------------|
B|-------------------|
G|-------------------|
D|-7----5----3-------|
A|-7----5----3----2--|
E|----------------0--|
   "I open my..."
e|------------------------------|
B|------------------------------|
G|------------------------------|
D|-7----5----3------------------|
A|-7----5----3------------2-3-5-|
E|----------------0-1-3-5-------|
     "All the tears..."


Riff 6a (Solo Rhythm)
Guitar 1
e|-------------------|
B|-------------------|
G|-------------------|
D|-7----5----3-------|
A|-7----5----3----2--|
E|----------------0--|

e|------------------------------|
B|------------------------------|
G|------------------------------|
D|-7----5----3------------------|
A|-7----5----3------------2-3-5-|
E|----------------0-1-3-5-------|

Guitar 2
e|-------------------|
B|-------------------|
G|-------------------|
D|-7----5----3----9--|


A|-7----5----3----7--|
E|-------------------|

e|------------------------------|
B|------------------------------|
G|------------------------------|
D|-7----5----3------------------|
A|-7----5----3------------2-3-5-|
E|----------------0-1-3-5-------|


Solo
e|-------------------------------------|
B|-------------------------------------|
G|-------------------------------------|
D|-------------------------------------|
A|-------------------------------------|
E|-------------------------------------|

e|-------------------------------------|
B|-------------------------------------|
G|-------------------------------------|
D|-------------------------------------|
A|-------------------------------------|
E|-------------------------------------|

e|-------------------------------------|
B|-------------------------------------|
G|-------------------------------------|
D|-------------------------------------|
A|-------------------------------------|
E|-------------------------------------|

e|-------------------------------------|
B|-------------------------------------|
G|-------------------------------------|
D|-------------------------------------|
A|-------------------------------------|
E|-------------------------------------|

End Solo



Riff 7
Guitar 1
e|---------------------------------|
B|---------------------------------|
G|---------------------------------|
D|---------------------------------|
A|-7-7-------------5-5-------------|
E|-5-5-5-5-5-5-5-5-3-3-3-3-3-3-3-3-|
       * * * * * *     * * * * * *
   "Blue eyes, blue eyes..."
e|---------------------------------|
B|---------------------------------|
G|---------------------------------|
D|---------------------------------|
A|-3-3-----------------------------|
E|-1-1-1-1-1-1-1-1-0-0-0-0-0-0-0-0-|
       * * * * * * * * * * * * * *
   "Blue eyes I recognize..."
e|---------------------------------|
B|---------------------------------|
G|---------------------------------|
D|---------------------------------|
A|-7-7-------------5-5-------------|
E|-5-5-5-5-5-5-5-5-3-3-3-3-3-3-3-3-|
       * * * * * *     * * * * * *
   "Blue eyes in the night..."
e|-------------------------------|
B|-------------------------------|
G|-------------------------------|
D|-------------------------------|
A|-3-3---------------------2-3-5-|
E|-1-1-1-1-1-1-1-1-0-1-3-5-------|
       * * * * * *
   "They see nothing..."

Guitar 2
e|---------------------------------|
B|---------------------------------|
G|---------------------------------|
D|---------------------------------|
A|-7-7-------------5-5-------------|
E|-5-5-5-5-5-5-5-5-3-3-3-3-3-3-3-3-|
       * * * * * *     * * * * * *
e|---------------------------------|
B|---------------------------------|
G|---------------------------------|
D|---------------------------------|
A|-3-3-------------2-------(2)-----|
E|-1-1-1-1-1-1-1-1-0-------(0)-----|
       * * * * * *
e|-------------------------------|
B|-------------------------------|
G|------------------4------(4)---|
D|-2-2---------------------------|
A|-0-0-0-0-0-0-0-0--2------(2)---|
E|-------------------------------|
       * * * * * *
e|-------------------------------|
B|-------------------------------|
G|-5----------7--9---------------|
D|-------------------------------|
A|-3----------5--7---------2-3-5-|
E|-----------------0-1-3-5-------|



Play Riff 6a   "...alive!"
Play Riff 7    "Blue eyes..."


Ending:
Guitar 1
e|--------------------|
B|--------------------|
G|--------------------|
D|--------------------|
A|-7------------2-3-5-|
E|-5----0-1-3-5-------|
  "...alive!"
e|----------------------------------|
B|----------------------------------|
G|----------------------------------|
D|----------------------------------|
A|-7------------2-3-5-0--[let ring]-|
E|-5----0-1-3-5---------------------|
  "..alive, yet they're so alive!"

Guitar 2
e|--------------------|
B|--------------------|
G|--------------------|
D|--------------------|
A|-7------------2-3-5-|
E|-5----0-1-3-5-------|

e|----------------------------------|
B|----------------------------------|
G|----------------------------------|
D|----------------------------------|
A|-7------------2-3-5-7--[let ring]-|
E|-5----0-1-3-5---------------------|

----------------------------------------------------

6. THE RITUAL

Tuning: Standard


Riff 1
Guitar 1
e|---------------------------------|
B|---------------------------------|
G|---------------------------------|
D|-9----9----9----9----12-12-11-12-|
A|-7----7----7----7----10-10--9-10-|
E|---------------------------------|

e|------------------------------|
B|------------------------------|
G|------------------------------|
D|-3----3----3----3---------8---|
A|-1----1----1----1----/6-9---6-|
E|------------------------------|

e|---------------------------------|
B|---------------------------------|
G|---------------------------------|
D|-9----9----9----9----12-12-11-12-|
A|-7----7----7----7----10-10--9-10-|
E|---------------------------------|

e|--------------------------|
B|--------------------------|
G|--------------------------|
D|-8----8----8----7----7--8-|
A|-6----6----6----5----5--6-|
E|--------------------------|

Guitar 2
e|--------------------------------|
B|--------------------------------|
G|-12----12----12----12----12--12-|
D|--------------------------------|
A|-10----10----10----10----10--10-|
E|--------------------------------|

e|--------------------------------|
B|--------------------------------|
G|-10----10----10----10----10--10-|
D|--------------------------------|
A|--8-----8-----8-----8-----8---8-|
E|--------------------------------|

e|--------------------------------|
B|--------------------------------|
G|-12----12----12----12----12--12-|
D|--------------------------------|
A|-10----10----10----10----10--10-|
E|--------------------------------|

e|--------------------------------|
B|--------------------------------|
G|-11----11----11----11----11--11-|
D|--------------------------------|
A|--9-----9-----9-----9-----9---9-|
E|--------------------------------|



Riff 2
e|-----------------------------|
B|-----------------------------|
G|-----------------------------|
D|-----------------------------|
A|-7-------7-10---------7-10---|
E|---000-0------8-000-0------8-|
     *** *        *** *
e|-------------------------|
B|-------------------------|
G|-------------------------|
D|-------------------------|
A|-------7-10---7-10---6-9-|
E|-000-0------8------7-----|
   *** *
             "I can't speak..."
e|-----------------------------|
B|-----------------------------|
G|-----------------------------|
D|-----------------------------|
A|-7-------7-10---------7-10---|
E|---000-0------8-000-0------8-|
     *** *        *** *
e|------------------------|
B|------------------------|
G|------------------------|
D|------------------------|
A|-------7-10---4-7---2-5-|
E|-000-0------5-----3-----|
   *** *
             "I'm in shock..."


Riff 3
e|-------------------------|
B|-------------------------|
G|-------------------------|
D|-------------------------|
A|---------------5---4---3-|
E|-0-000-0-0-0-0-3-0-2-0-1-|
   * *** * * * *   *   *
e|-------------------------|
B|-------------------------|
G|-------------------------|
D|-------------------------|
A|---------------5---4-5-7-|
E|-0-000-0-0-0-0-3-0-2-3-5-|
   * *** * * * *   *
e|-------------------------|
B|-------------------------|
G|-------------------------|
D|-------------------------|
A|---------------5---4---3-|
E|-0-000-0-0-0-0-3-0-2-0-1-|
   * *** * * * *   *   *
e|-------------------------|
B|-------------------------|
G|-------------------------|
D|---------------5---4-----|
A|---------------3---2-5-4-|
E|-0-000-0-0-0-0---0---3-2-|
   * *** * * * *   *


Riff 3a (Solo Rhythm)
e|-------------------------|
B|-------------------------|
G|-------------------------|
D|-------------------------|
A|---------------5---4---3-|
E|-0-000-0-0-0-0-3-0-2-0-1-|
   * *** * * * *   *   *
e|-------------------------|
B|-------------------------|
G|-------------------------|
D|-------------------------|
A|---------------5---4-5-7-|
E|-0-000-0-0-0-0-3-0-2-3-5-|
   * *** * * * *   *
e|-------------------------|
B|-------------------------|
G|-------------------------|
D|-------------------------|
A|---------------5---4---3-|
E|-0-000-0-0-0-0-3-0-2-0-1-|
   * *** * * * *   *   *
e|----------------------|
B|----------------------|
G|----------------------|
D|---------------5---4--|
A|---------------3---2--|
E|-0-000-0-0-0-0---0----|
   * *** * * * *   *


Solo (Wah pedal)
Guitar 1
e|-----------------------------|
B|-----------------------------|
G|-9~--8----------12-11--------|
D|-------10-9~----------10-9~--|
A|-----------------------------|
E|-----------------------------|

e|-----------------------------|
B|-----------------------------|
G|-9~--8-12-11~----12-11-9-8~--|
D|-----------------------------|
A|-----------------------------|
E|-----------------------------|

Guitar 2
e|---------------------------------|
B|-------------------12-11---------|
G|-12~--11-------------------------|
D|---------14-13~----------14-13~--|
A|---------------------------------|
E|---------------------------------|

e|---------------------------------|
B|---------12-11~----12-11---------|
G|-12~--11-----------------12-11~--|
D|---------------------------------|
A|---------------------------------|
E|---------------------------------|
End Solo



Riff 4                    x2
e|-------------------------|
B|-------------------------|
G|-------------------------|
D|---------------3---4---3-|
A|---------------3---4---3-|
E|-1-1-1-1-1-1-1---1---1---|
   * * * * * * *   *   *
  "Human skulls..."
e|--------------------------|
B|--------------------------|
G|--------------------------|
D|----------------7---8---7-|
A|----------------7---8---7-|
E|-/5-5-5-5-5-5-5---5---5---|
    * * * * * * *   *   *
  "A strange symbol..."
e|-------------------------|
B|-------------------------|
G|-------------------------|
D|-------------------------|
A|-------------8-7-5-------|
E|-5-5-5-5-5-5-------8-7-5-|
   * * * * * *
  "...on the wall..."     x2
e|-------------------------|
B|-------------------------|
G|-------------------------|
D|---------------3---4---3-|
A|---------------3---4---3-|
E|-1-1-1-1-1-1-1---1---1---|
   * * * * * * *   *   *
  "Black candles..."



Riff 5
e|----------------------------------|
B|----------------------------------|
G|----------------------------------|
D|----------------------------------|
A|-7--------10--------10--------10--|
E|-5---------8---------7---------6--|
  "In the gloomy light..."
e|---------------------------------------------|
B|---------------------------------------------|
G|---------------------------------------------|
D|---------------------------------------------|
A|-10--------10--------10--------10--------10--|
E|--7---------8---------7---------6---------7--|
  "Oh, what is it for?"



Play Riff 4   "In glass jars..."



Riff 6
e|-----------------------------------------------|
B|-----------------------------------------------|
G|-----------------------------------------------|
D|-----------------------------------------------|
A|-7--------10--------12--------15--------14--10-|
E|-5---------8--------10--------13--------12---8-|
  "I hear the Master's voice..."
e|--------------------------------|
B|--------------------------------|
G|--------------------------------|
D|--------------------------------|
A|-7--------10--------0--------2--|
E|-5---------8--------1--------0--|
  "I'm feeling strange..."



Riff 3b (Solo Rhythm)
e|-------------------------|
B|-------------------------|
G|-------------------------| -----|
D|---------------5---4---3-|      |
A|-0-000-0-0-0-0-3-0-2-0-1-|      |
E|-------------------------|      |
   * *** * * * *   *   *          |
e|-------------------------|      |
B|-------------------------|      |
G|-------------------------|      |
D|---------------5---4-5-7-|      |
A|-0-000-0-0-0-0-3-0-2-3-5-|      |
E|-------------------------|      |
   * *** * * * *   *              |--> Play 2x
e|-------------------------|      |
B|-------------------------|      |
G|-------------------------|      |
D|---------------5---4---3-|      |
A|-0-000-0-0-0-0-3-0-2-0-1-|      |
E|-------------------------|      |
   * *** * * * *   *   *          |
e|-------------------------|      |
B|-------------------------|      |
G|---------------5---4-----|      |
D|---------------3---2-5-4-| -----|
A|-0-000-0-0-0-0---0---3-2-|
E|-------------------------|
   * *** * * * *   *

e|-------------------------------|
B|-------------------------------|
G|---------------------------10--|
D|-3--------5--------7--------7--|
A|-1--------3--------5--------5--|
E|-------------------------------|

e|-------------------------------|
B|-------------------------------|
G|-------------------------------|
D|-3--------5--------5-----------|
A|-1--------3--------0--------3--|
E|----------------------------4--|



Solo
e|-------------------------------------|
B|-------------------------------------|
G|-------------------------------------|
D|-------------------------------------|
A|-------------------------------------|
E|-------------------------------------|

e|-------------------------------------|
B|-------------------------------------|
G|-------------------------------------|
D|-------------------------------------|
A|-------------------------------------|
E|-------------------------------------|

e|-------------------------------------|
B|-------------------------------------|
G|-------------------------------------|
D|-------------------------------------|
A|-------------------------------------|
E|-------------------------------------|

e|-------------------------------------|
B|-------------------------------------|
G|-------------------------------------|
D|-------------------------------------|
A|-------------------------------------|
E|-------------------------------------|

End Solo



Play Riff 6   "I hear the Master's voice..."


Riff 7
Guitar 1
e|-------------------------------------|
B|-------------------------------------|
G|-------------------------------------|
D|-8--------8--------8--------8--------|
A|-6--6-6-6-6--6-6-6-6--6-6-6-6--6-6-6-|
E|-------------------------------------|
      * * *    * * *    * * *    * * *
                  "In panic..."
e|-------------------------------------|
B|-------------------------------------|
G|-------------------------------------|
D|-7--------7--------7--------7--------|
A|-5--5-5-5-5--5-5-5-5--5-5-5-5--5-5-5-|
E|-------------------------------------|
      * * *    * * *    * * *    * * *
  "...kick the shelf..."
e|-------------------------------------|
B|-------------------------------------|
G|-------------------------------------|
D|-8--------8--------8--------8--------|
A|-6--6-6-6-6--6-6-6-6--6-6-6-6--6-6-6-|
E|-------------------------------------|
      * * *    * * *    * * *    * * *
      "One of them..."
e|-------------|
B|-------------|
G|-------------|
D|-7--------6--|
A|-5--------4--|
E|-------------|
   "...above to the floor..."

Guitar 2
e|-------------------------------------|
B|-------------------------------------|
G|-11------------(11)-------------10-8-|
D|-------------------------------------|
A|--9-------------(9)--------------8-6-|
E|-------------------------------------|

e|-------------------------------------|
B|-------------------------------------|
G|-10------------(10)-------------(10)-|
D|-------------------------------------|
A|--8-------------(8)--------------(8)-|
E|-------------------------------------|

e|----------------------------|
B|----------------------------|
G|-11--------13--15----13-11--|
D|----------------------------|
A|--9--------11--13----11--9--|
E|----------------------------|

e|--------------|
B|--------------|
G|-10-------10--|
D|--------------|
A|--8--------8--|
E|--------------|



Play Riff 2    "Red!  Oh so red!"
Play Riff 3
Play Riff 3a   Solo Rhythm

Solo (Wah pedal)
Guitar 1
e|-----------------------------|
B|-----------------------------|
G|-9~--8----------12-11--------|
D|-------10-9~----------10-9~--|
A|-----------------------------|
E|-----------------------------|

e|-----------------------------|
B|-----------------------------|
G|-9~--8-12-11~----12-11-9-8~--|
D|-----------------------------|
A|-----------------------------|
E|-----------------------------|

Guitar 2
e|---------------------------------|
B|-------------------12-11---------|
G|-12~--11-------------------------|
D|---------14-13~----------14-13~--|
A|---------------------------------|
E|---------------------------------|

e|---------------------------------|
B|---------12-11~----12-11---------|
G|-12~--11-----------------12-11~--|
D|---------------------------------|
A|---------------------------------|
E|---------------------------------|
End Solo


Play Riff 4   "Demon skull..."
Play Riff 5   "I feel a sting..."
Play Riff 4   Solo Rhythm

Solo
e|-------------------------------------|
B|-------------------------------------|
G|-------------------------------------|
D|-------------------------------------|
A|-------------------------------------|
E|-------------------------------------|

e|-------------------------------------|
B|-------------------------------------|
G|-------------------------------------|
D|-------------------------------------|
A|-------------------------------------|
E|-------------------------------------|

e|-------------------------------------|
B|-------------------------------------|
G|-------------------------------------|
D|-------------------------------------|
A|-------------------------------------|
E|-------------------------------------|

e|-------------------------------------|
B|-------------------------------------|
G|-------------------------------------|
D|-------------------------------------|
A|-------------------------------------|
E|-------------------------------------|

End Solo


Play Riff 6   "I hear the Master's voice..."
              "He lures away my soul..."
Play Riff 1   "As well as hell..."

-----------------------------------------------------

7. NO MORE ME

Tuning: Standard

Riff 1
e|-------------------------------------------|
B|-------------------------------------------|
G|-------------------------------------------|
D|-5~---4~---5~---1-2-4-2~--------2~---1-2-4-|
A|---------------------------2~--------------|
E|-------------------------------------------|


Riff 2
e|-------------------------------------------|
B|-------------------------------------------|
G|-------------------------------------------|
D|--5~---4~---5~--\1~-0--5~---4~---5~--\1~-0-|
A|-------------------------------------------|
E|-------------------------------------------|
   "First..."           "...we will..."
e|----------------------|
B|----------------------|
G|-----------------7-6~-|
D|--4~---5~---7-8~------|
A|----------------------|
E|----------------------|
        "No more me..."


Riff 3
Guitar 1
e|-------------------------------|
B|-------------------------------|
G|-------------------------------|
D|-------------------------------|
A|-7--------6--------7--------6--|
E|-------------------------------|
  "A shiny scalpel..."
e|-----------------------------|
B|-----------------------------|
G|-----------------------------|
D|-5--------3---------------1--|
A|-------------------3-1-------|
E|-----------------------------|
   "I fear for..."
e|-------------------------------------|
B|-------------------------------------|
G|-------------------------------------|
D|--------3------4--------3---------3--|
A|---3---------3---------------3-------|
E|-------------------------------------|
  "I feel as if..."

Guitar 2
e|-------------------------------|
B|-------------------------------|
G|-------------------------------|
D|-------------------7--------6--|
A|-7--------6--------------------|
E|-------------------------------|

e|-----------------------------|
B|-----------------------------|
G|-----------------------------|
D|-5--------3---------------1--|
A|-------------------3-1-------|
E|-----------------------------|

e|-------------------------------------|
B|-------------------------------------|
G|-------------------------------------|
D|--------3----------------------------|
A|-1-3---------3-4--------4----3----3--|
E|-------------------------------------|



Riff 4
e|------------------------------|
B|------------------------------|
G|------------------------------|
D|------------------------------|
A|-4--3----------------4--3--2--|
E|-2--1----------------2--1--0--|
   "Aaaah...scalpel..."
   "Fingers pull my..."


REPEAT RIFF 3    They set....
REPEAT RIFF 4 (X2) My veins...
REPEAT RIFF 3    All of my....

END

-------------------------------------------------

8. BLOOD TO WALK

Tuning: Standard


Riff 1
e|-------------------------------------------|
B|-------------------------------------------|
G|-------------------------------------------|
D|-5~---4~---5~---1-2-4-2~--------2~---1-2-4-|
A|---------------------------2~--------------|
E|-------------------------------------------|


Riff 2
e|-------------------------------------------|
B|-------------------------------------------|
G|-------------------------------------------|
D|--5~---4~---5~--\1~-0--5~---4~---5~--\1~-0-|
A|-------------------------------------------|
E|-------------------------------------------|
   "First..."           "...we will..."
e|----------------------|
B|----------------------|
G|-----------------7-6~-|
D|--4~---5~---7-8~------|
A|----------------------|
E|----------------------|
        "No more me..."


Riff 3
Guitar 1
e|-------------------------------|
B|-------------------------------|
G|-------------------------------|
D|-------------------------------|
A|-7--------6--------7--------6--|
E|-------------------------------|
  "A shiny scalpel..."
e|-----------------------------|
B|-----------------------------|
G|-----------------------------|
D|-5--------3---------------1--|
A|-------------------3-1-------|
E|-----------------------------|
   "I fear for..."
e|-------------------------------------|
B|-------------------------------------|
G|-------------------------------------|
D|--------3------4--------3---------3--|
A|---3---------3---------------3-------|
E|-------------------------------------|
  "I feel as if..."

Guitar 2
e|-------------------------------|
B|-------------------------------|
G|-------------------------------|
D|-------------------7--------6--|
A|-7--------6--------------------|
E|-------------------------------|

e|-----------------------------|
B|-----------------------------|
G|-----------------------------|
D|-5--------3---------------1--|
A|-------------------3-1-------|
E|-----------------------------|

e|-------------------------------------|
B|-------------------------------------|
G|-------------------------------------|
D|--------3----------------------------|
A|-1-3---------3-4--------4----3----3--|
E|-------------------------------------|



Riff 4
e|------------------------------|
B|------------------------------|
G|------------------------------|
D|------------------------------|
A|-4--3----------------4--3--2--|
E|-2--1----------------2--1--0--|
   "Aaaah...scalpel..."
   "Fingers pull my..."


REPEAT RIFF 3    They set....
REPEAT RIFF 4 (X2) My veins...
REPEAT RIFF 3    All of my....

END

-----------------------------------------------------

9. DARKNESS

Tuning: Standard


Riff 1 (Clean)
e|------------------------------------|
B|------------------------------------|
G|------------------5-----------------|
D|---7---7---7--5h7-----7---7---7-----|
A|------------------------------------|
E|-5---5---5----------5---5---5---5/8-|
                  "For thirteen days..."
e|------------------------------------|
B|------------------------------------|
G|------------------5-----------------|
D|---7---7---7--5h7-----7---7---7-----|
A|---------------------------------10-|
E|-5---5---5----------5---5---5-----8-|
                  "We have trained..."


Riff 2 (Distortion)
e|---------------|
B|---------------|
G|---------------|
D|-7--5-4-2------|
A|-5--3-2-0--5-3-|
E|-----------3-1-|



Riff 3
e|----------------------------------------|
B|----------------------------------------|
G|----------------------------------------|
D|------------------------------7-6h7p6---|
A|---7---7---7-7/8-5----7---7-----------8-|
E|-0---0---0----------0---0---0-----------|
   "Every time..."
e|-----------------------------------|
B|-----------------------------------|
G|-----------------------------------|
D|----------------------------10--12-|
A|---7---7---7-7/8-5----7---7--8--10-|
E|-0---0---0----------0---0----------|
   "Little jars..."


Riff 4
e|-------------------------------------|
B|-------------------------------------|
G|-------------------------------------|
D|---7---7---7-7/8-5----7---7---7------|
A|--------------------------------7/10-|
E|-5---5---5----------5---5---5---5/-8-|
   "Every time..."
e|------------------------------------|
B|------------------------------------|
G|------------------------------------|
D|---7---7---7-7/8-5----7---7---7-----|
A|---------------------------------10-|
E|-5---5---5----------5---5---5-----8-|
   "Every time..."


Play Riff 2


Riff 5
e|---------------------------------------|
B|---------------------------------------|
G|---------------------------------------|
D|---------------------------------------|
A|----------3---2--------------3---2-----|
E|-0--0-0-0---0---3-2-1--1-1-1---1---3-2-|
   *  * * *   *       *  * * *   *
          "Our eyes..."
e|------------------------------------|
B|------------------------------------|
G|------------------------------------|
D|------------------------------------|
A|----------3---2-----3-3-3-3-5-5-5-5-|
E|-0--0-0-0---0---3-2-1-1-1-1-3-3-3-3-|
   *  * * *   *
          "Our souls..."
e|---------------------------------------|
B|---------------------------------------|
G|---------------------------------------|
D|---------------------------------------|
A|----------3---2--------------3---2-----|
E|-0--0-0-0---0---3-2-1--1-1-1---1---3-2-|
   *  * * *   *       *  * * *   *
   "...skin.  The blood..."
e|----------------------------|
B|----------------------------|
G|----------------------------|
D|----------------------------|
A|----------3---2-----3----5--|
E|-0--0-0-0---0---3-2-1----3--|
   *  * * *   *
   "Living just an hour..."



Riff 6
Guitar 1
e|------------------------------------------------|
B|------------------------------------------------|
G|------------------------------------------------|
D|---------------------------------5----7----5----|
A|-7-7--7--7-7/10--5-5--5--5--5-5--3----5----3--5-|
E|-5-5--5--5-5/-8--3-3--3--3--3-3--3----5----3--3-|
   "In the darkness..."
e|---------------------------------------------|
B|---------------------------------------------|
G|---------------------------------------------|
D|---------------------------------5-----------|
A|-7-7--7--7-7/10--5-5--5--5--5-5--3----3----5-|
E|-5-5--5--5-5/-8--3-3--3--3--3-3--3----1----3-|
   "In the darkness..."

Guitar 2
e|-------------------------------------------|
B|-------------------------------------------|
G|-------------------------------------------|
D|----------------------------5----7----5----|
A|-3-------------2------------3----5----3--5-|
E|----------------------------3----5----3--3-|

e|-----------------------------------------|
B|-----------------------------------------|
G|-----------------------------------------|
D|----------------------------5------------|
A|-3-------------2------------3----3----5--|
E|----------------------------3----1----3--|



Riff 1a
e|-------------------------------------|
B|-------------------------------------|
G|------------------5------------------|
D|---7---7---7--5h7-----7---7---7------|
A|--------------------------------7/10-|
E|-5---5---5----------5---5---5---5/-8-|
                  "Darkness..."
e|------------------------------------|
B|------------------------------------|
G|------------------5-----------------|
D|---7---7---7--5h7-----7---7---7-----|
A|---------------------------------10-|
E|-5---5---5----------5---5---5-----8-|
                  "Darkness..."


Play Riff 2
Play Riff 3   "Every night..."
Play Riff 4   "Sitting on opposite..."
Play Riff 2   "It is all..."
Play Riff 5   "Our eyes are now..."
Play Riff 6   "In the darkness..."


Riff 7
Guitar 1 (Clean)
e|---------------------------------|
B|---------------------------------|
G|---------------------------------|
D|---7---7---7---7---7---7---7---7-|
A|---------------------------------|
E|-5---5---5---5---5---5---5---5---|

e|------------------------------------|
B|------------------------------------|
G|-----------------5------------------|
D|---7---7---7-5h7------7---7---7---7-|
A|------------------------------------|
E|-5---5---5----------5---5---5---5---|


Guitar 2 (Distortion)
e|-----------------------------------|
B|-----------------------------------|
G|-----------------------------------|
D|------------------------------5--7-|
A|-7-7-----10--7-7----5--7-7----3--5-|
E|-5-5------8--5-5----3--5-5---------|

e|-----------------------------------|
B|-----------------------------------|
G|-----------------------------------|
D|-----------------------------------|
A|-7-7-7-7-7-7-7/10--7-7-7-7-7-7-7\5-|
E|-5-5-5-5-5-5-5/-8--5-5-5-5-5-5-5\3-|
   * * * * * *       * * * * * *
e|----------------------|
B|----------------------|
G|----------------------|
D|-----------------5--7-|
A|-7-7-7-7-7-7-7-7-3--5-|
E|-5-5-5-5-5-5-5-5------|
   * * * * * * * *


Riff 8 (Solo Rhythm)
e|--------------------------------|
B|--------------------------------|
G|--------------------------------|
D|--------------------------------|
A|-8-8--8--8-8-10--8-8--8--8-8-10-|
E|-6-6--6--6-6--8--6-6--6--6-6--8-|

e|--------------------------------|
B|--------------------------------|
G|--------------------------------|
D|-7-7--7--7-7-10--7-7--7--7-7-10-|
A|-5-5--5--5-5--8--5-5--5--5-5--8-|
E|--------------------------------|

e|------------------------------------------|
B|------------------------------------------|
G|------------------------------------------|
D|------------------------------------------|
A|-8-8--8--8-8-10--8-8--8--8-8-10--7--8--10-|
E|-6-6--6--6-6--8--6-6--6--6-6--8--5--6---8-|


Solo
e|-15b17----15b17-{17}{17}{17}-(17)r15-15-13~-|
B|--------------------------------------------|
G|--------------------------------------------|
D|--------------------------------------------|
A|--------------------------------------------|
E|--------------------------------------------|

e|-12h13p12p10-12----10---------------------------------------------|
B|----------------13----13-10h11p10-----10-----10-------------------|
G|----------------------------------12------10----12--10--9------9--|
D|-----------------------------------------------------------12-----|
A|------------------------------------------------------------------|
E|------------------------------------------------------------------|

e|---------------------------------------------------------|
B|---------------------------------------------------------|
G|---------------------------------------------------------|
D|---------------------------------------------------------|
A|-12--13-12-10--------------10--12--13--------------------|
E|---------------13--12--13--------------10--10b13r-10~~~--|
                      *   *
e|-/24^r-----22~~----20^r-18--17-18-20-18-17----------------|
B|-------------------------------------------20-18-17-20-18-|
G|----------------------------------------------------------|
D|----------------------------------------------------------|
A|----------------------------------------------------------|
E|----------------------------------------------------------|

e|-----------------------------------------------------|
B|-----------------------------------------------------|
G|-15-17-15-14-16-15-14--------------------------------|
D|----------------------17-15-14-----------------------|
A|-------------------------------16----------------15--|
E|----------------------------------18-17-15-17-18-----|

e|-------------------------------------------------|
B|-------------------------------------------------|
G|-------------------------------------------------|
D|-----------------------------14-15---------------|
A|--------------------------15-------17----17~~----|
E|-18-17-15--17-15-18-17-18------------------------|

End Solo


Riff 9
Guitar 1
e|-------------------------------------|
B|-------------------------------------|
G|-------------------------------------|
D|---7---7---7---7---10---10---10---10-|
A|-5---5---5---5---8----8----8----8----|
E|-------------------------------------|
   * * * * * * * * *  * *  * *  * *  *
   "Tonight you will dance..."
e|-------------------------|
B|-------------------------|
G|-------------------------|
D|---5---5---5---5-3----5--|
A|-3---3---3---3---1----3--|
E|-------------------------|
   * * * * * * * *
   "Tonight, no strings..."
e|-----------------------------------------|
B|-----------------------------------------|
G|-----------------------------------------|
D|-----------------------------------------|
A|-9-9-9-9-9-9-9-9-12-12-12-12-12-12-12-12-|
E|-7-7-7-7-7-7-7-7-10-10-10-10-10-10-10-10-|
   * * * * * * * *  *  *  *  *  *  *  *  *
   "But I can't..."
e|-------------------------|
B|-------------------------|
G|-------------------------|
D|-------------------------|
A|-7-7-7-7-7-7-7-7-5----7--|
E|-5-5-5-5-5-5-5-5-3----5--|
   * * * * * * * *
  "...dance, I don't have a chance!"

Guitar 2 (Played softly)
e|---------------------------------|
B|---------------------------------|
G|-------4---------------7---------|
D|---7------7-4-----10------10-7---|
A|-5---5--------5-8----8---------8-|
E|---------------------------------|
   "Tonight you will dance..."
e|------------------------|
B|------------------------|
G|-------2----------------|
D|---5------5-2---3----5--|
A|-3---3--------3-1----3--|
E|------------------------|
   "Tonight, no strings..."
e|------------------------------------|
B|------------------------------------|
G|------------------------------------|
D|-------6-----------------9----------|
A|---9------9-6------12-------12-9----|
E|-7---7--------7-10----10---------10-|
   "But I can't..."
e|------------------------|
B|------------------------|
G|------------------------|
D|-------4----------------|
A|---7------7-4---5----7--|
E|-5---5--------5-3----5--|
  "...dance, I don't have a chance!"



Play Riff 6   "Dance!"


Ending:
Riff 7
Guitar 1 (Clean)
e|---------------------------------|
B|---------------------------------|
G|---------------------------------|
D|---7---7---7---7---7---7---7---7-|
A|---------------------------------|
E|-5---5---5---5---5---5---5---5---|
                  "Send her to..."
e|----------------------------------------|
B|----------------------------------------|
G|-----------------5----------------------|
D|---7---7---7-5h7------7---7---7---7---7-|
A|----------------------------------------|
E|-5---5---5----------5---5---5---5---5---|
                     "Send that puppet to Berlin!"

Guitar 2 (Distortion)
e|----------------------------------------|
B|----------------------------------------|
G|----------------------------------------|
D|------------------------------5--7------|
A|-7-7-----10--7-7----5--7-7----3--5--7-7-|
E|-5-5------8--5-5----3--5-5----------5-5-|

------------------------------------------------

10. SO SAD

Tuning: Standard

Riff 1 (Arranged for guitar)
e|-------------------------------------------------|
B|-13----13----13----13-15-12----12----13-12-------|
G|-------------------------------------------14-12-|
D|-------------------------------------------------|
A|-------------------------------------------------|
E|-------------------------------------------------|

e|-------------------------------------------12-10-|
B|-13----13----13----13-15-12----12----13-12-------|
G|-------------------------------------------------|
D|-------------------------------------------------|
A|-------------------------------------------------|
E|-------------------------------------------------|

e|-12----12----12----12-13-10----10----12-10----------|
B|-------------------------------------------13-12-12-|
G|----------------------------------------------------|
D|----------------------------------------------------|
A|----------------------------------------------------|
E|----------------------------------------------------|

Guitar fill over Riff 1
e|--17-------------------------|
B|------------[15]17r15--------|
G|-----------------------------|
D|-----------------------------|
A|-----------------------------|
E|-----------------------------|

e|-----------------------------|
B|-----------------------------|
G|-[15]17r15--------[12]13r12--|
D|-----------------------------|
A|-----------------------------|
E|-----------------------------|



Lead into next section: (Clean)
e|-------0---------------0---------|
B|-----6---6-----------6---6-------|
G|---7-------7---7---7-------7---7-|
D|-0-----------0---0-----------0---|
A|---------------------------------|
E|---------------------------------|


Riff 2
Guitar 1
e|-------------------------------------------|
B|-------------------------------------------|
G|-------------------------------------------|
D|-7-------------------------6---------------|
A|------8--7------5----7--8-------8-7--5-7-8-|
E|------------5-8----------------------------|
                    "I am sitting in the..."
e|---------------------------------------|
B|---------------------------------------|
G|---------------------------------------|
D|-7----------------7----9-10------------|
A|----8-7-------5-8-5----7--8--7-6----7--|
E|--------5-5-8----------------5-4-------|
     "We are looking..."
e|----------------|
B|----------------|
G|----------------|
D|------------7---|
A|-6----7--8--5---|
E|-4---------(6)--| <-- Guitar 3 plays note in ()
     "Take her away..."


Guitar 2 (Clean, quiet)           x2
e|-------0---------------0---------|
B|-----6---6-----------6---6-------|
G|---7-------7---7---7-------7---7-|
D|-0-----------0---0-----------0---|
A|---------------------------------|
E|---------------------------------|

e|-------0---------------0---------|
B|-----0---0-----------0---0-------|
G|---1-------1---1---1-------1---1-|
D|-0-----------0---0-----------0---|
A|---------------------------------|
E|---------------------------------|
                                  x2
e|-------0---------------0---------|
B|-----6---6-----------6---6-------|
G|---7-------7---7---7-------7---7-|
D|-0-----------0---0-----------0---|
A|---------------------------------|
E|---------------------------------|
                                  x2
e|-------0---------------0---------|
B|-----0---0-----------0---0-------|
G|---1-------1---1---1-------1---1-|
D|-0-----------0---0-----------0---|
A|---------------------------------|
E|---------------------------------|




Riff 1a
Guitar 1 (Arranged for guitar)
e|-------------------------------------------------|
B|-13----13----13----13-15-12----12----13-12-------|
G|-------------------------------------------14-12-|
D|-------------------------------------------------|
A|-------------------------------------------------|
E|-------------------------------------------------|
                   "Tell me this..."
e|-------------------------------------------12-10-|
B|-13----13----13----13-15-12----12----13-12-------|
G|-------------------------------------------------|
D|-------------------------------------------------|
A|-------------------------------------------------|
E|-------------------------------------------------|
   "Do you remember..."
e|-12----12----12----12-13-10----10----12-10----------|
B|-------------------------------------------13-12-12-|
G|----------------------------------------------------|
D|----------------------------------------------------|
A|----------------------------------------------------|
E|----------------------------------------------------|
   "...cry, I know..."

Guitar 2 (Clean)
e|-------------------------------------|
B|-------------------------------------|
G|-----9-10-9---9----7---7---9-7-------|
D|---7--------7---10---5---5-----10-9--|
A|-0-----------------------------------|
E|-------------------------------------|

e|---------------------------------------|
B|---------------------------------------|
G|-----9-10-9---9----9---7-7----9-7------|
D|---7--------7---10---5-----5-----10-9--|
A|-0-------------------------------------|
E|---------------------------------------|

e|---------------------------------------|
B|---------------------------------------|
G|-----9-10-9---9----7---7-7---9-7-------|
D|---7--------7---10---5-----5-----10-9--|
A|-0-------------------------------------|
E|---------------------------------------|

e|-------------|
B|-------------|
G|-----9-10-9--|
D|---7---------|
A|-0-----------|
E|-------------|



Riff 3 (Solo Rhythm)
Guitar 1                                          x4
e|-------------------------------------------------|
B|-------------------------------------------------|
G|-------------------------------------------------|
D|-5/7-----7--5-7---10-10\9------5--7-5----5-7-5-2-|
A|-3/5-5-5-5--3-5----8--8\7--3-3-3--5-3----3-5-3-0-|
E|-------------------------------------------------|
       * *                   * *
e|-------|
B|-------|
G|-------|
D|-------|
A|--5/7--|
E|-------|


Guitar 2 (Harmony guitar in () )                 x3
e|------------------------------------------------|
B|------------------------------------------------|
G|------------------------------------------------|
D|------------------(3-3\2-2-2-2--3-2----2-3-2)---|
A|-3/5-5-5-5--3-5----5-5\3-3-3-3--5-3----3-5-3--0-|
E|------------------------------------------------|
       * *                 * *
e|------------------------------------------------|
B|------------------------------------------------|
G|------------------------------------------------|
D|------------------(7-7\5-5-5-5--7-5----5-7-5)---|
A|-7/8-8-8-8--7-8----8-8\7-7-7-7--8-7----8-7-8--0-|
E|------------------------------------------------|
       * *                 * *
e|-------|
B|-------|
G|-------|
D|-------|
A|--5/7--|
E|-------|


Solo
e|-------------------------------------|
B|-------------------------------------|
G|-------------------------------------|
D|-------------------------------------|
A|-------------------------------------|
E|-------------------------------------|

e|-------------------------------------|
B|-------------------------------------|
G|-------------------------------------|
D|-------------------------------------|
A|-------------------------------------|
E|-------------------------------------|

e|-------------------------------------|
B|-------------------------------------|
G|-------------------------------------|
D|-------------------------------------|
A|-------------------------------------|
E|-------------------------------------|

e|-------------------------------------|
B|-------------------------------------|
G|-------------------------------------|
D|-------------------------------------|
A|-------------------------------------|
E|-------------------------------------|

End Solo


Lead into next section: (Clean)
e|-------0---------------0---------|
B|-----6---6-----------6---6-------|
G|---7-------7---7---7-------7---7-|
D|-0-----------0---0-----------0---|
A|---------------------------------|
E|---------------------------------|



Play Riff 2   "I wonder..."
Play Riff 1a  "I will always..."
Play Riff 3   "I swear..."
Play Riff 1    without guitar fills


Ending
Guitar 1
e|---------------------------------------|
B|---------------------------------------|
G|---------------------------------------|
D|---------------------------------------|
A|-2----2----2----2----2----2----2----2--|
E|-1----1----1----1----1----1----1----1--|
           "Goodbye my love..."

Guitar 2 (Arranged for guitar)
e|-----------------------------------------------|
B|-13----13----13----13-15-12----12----12----12--|
G|-----------------------------------------------|
D|-----------------------------------------------|
A|-----------------------------------------------|
E|-----------------------------------------------|

e|-----------------------------------------|
B|-13----13----13----13-15-12----12----12--|
G|-----------------------------------------|
D|-----------------------------------------|
A|-----------------------------------------|
E|-----------------------------------------|

----------------------------------------------------------

11. CHRISTMAS

Tuning: Standard

Riff 1
Guitar 1
e|-------------------------|
B|-------------------------|
G|-------------------------|
D|-5--4--3--2--5--4--3--2--|
A|-5--4--3--2--5--4--3--2--|
E|-------------------------|

e|-----------------|
B|-----------------|
G|-----------------|
D|-5-4-3-2-5-4-3-2-|
A|-5-4-3-2-5-4-3-2-|
E|-----------------|

Guitar 2
e|-------------------------|
B|-------------------------|
G|-------------------------|
D|-5--4--3--2--------------|
A|-5--4--3--2--------------|
E|-------------3--2--1--0--|

e|-----------------|
B|-----------------|
G|-----------------|
D|-5-4-3-2---------|
A|-5-4-3-2-5-4-3-2-|
E|-----------------|


Riff 2 (Solo Rhythm)
e|------------------------|
B|------------------------|
G|------------------------|
D|-2--2-2--7-7-10-9-12-10-|
A|-0--0-0--0-0--0-0--0--0-|
E|------------------------|

e|----------------------|
B|----------------------|
G|----------------------|
D|-5--5-5\--------------|
A|-5--5-----------2-3-2-|
E|----------3-3-3-------|

e|------------------------|
B|------------------------|
G|------------------------|
D|-2--2-2--7-7-10-9-12-10-|
A|-0--0-0--0-0--0-0--0--0-|
E|------------------------|

e|----------------------|
B|----------------------|
G|----------------------|
D|-5--5-5\--------------|
A|-5--5-----------3-2---|
E|----------3-3-3-----3-|




Solo
e|-------------------------------------|
B|-------------------------------------|
G|-------------------------------------|
D|-------------------------------------|
A|-------------------------------------|
E|-------------------------------------|

e|-------------------------------------|
B|-------------------------------------|
G|-------------------------------------|
D|-------------------------------------|
A|-------------------------------------|
E|-------------------------------------|

e|-------------------------------------|
B|-------------------------------------|
G|-------------------------------------|
D|-------------------------------------|
A|-------------------------------------|
E|-------------------------------------|

e|-------------------------------------|
B|-------------------------------------|
G|-------------------------------------|
D|-------------------------------------|
A|-------------------------------------|
E|-------------------------------------|

End Solo



Riff 3
e|---------------------------------|
B|---------------------------------|
G|---------------------------------|
D|---------------------------------|
A|-7-7---------10-10----------9--9-|
E|-0-0-0-0-0-0--0--0-0-0-0-0-10-10-|
       * * * *       * * * *
            "It's Christmas again..."
e|---------------------|
B|---------------------|
G|---------------------|
D|---------------------|
A|-------------10-9----|
E|-0-0-0-0-0-0--0-0-10-|
   * * * * * *
e|--------------------------------|
B|--------------------------------|
G|--------------------------------|
D|--------------------------------|
A|-7-7---------10-10-----12--9--9-|
E|-0-0-0-0-0-0--0--0-0-0--0-10-10-|
       * * * *       * *
            "It will never..."
e|---------------------|
B|---------------------|
G|---------------------|
D|---------------------|
A|-------------10-9----|
E|-0-0-0-0-0-0--0-0-10-|
   * * * * * *



Riff 4
e|---------------------------------|
B|---------------------------------|
G|---------------------------------|
D|-----2-------0-------2-------0---|
A|---2---2---2---2---2---2---2---2-|
E|-0-------1-------0-------1-------|
   "It's Christmas again..."



Riff 5
Guitar 1
e|---3-3---3----------4-4-------------|
B|---6-6---6----------6-6-------------|
G|---5-5---5----------5-5-------------|
D|------------------------------------|
A|-------3---------/4-----4-6-4-3-----|
E|-0------------------------------6-4-|
           "And as the snow..."
e|---3-3---3----------4-4-------------|
B|---6-6---6----------6-6-------------|
G|---5-5---5----------5-5-------------|
D|------------------------------------|
A|-3-----3---------/4-----4-6-4-3-----|
E|--------------------------------6-4-|

e|---3-3---3----------4-4-------------|
B|---6-6---6----------6-6-------------|
G|---5-5---5----------5-5-------------|
D|------------------------------------|
A|-3-----3---------/4-----4-6-4-3-----|
E|--------------------------------6-4-|

e|---3-3---3--------------------------|
B|---6-6---6--------------------------|
G|---5-5---5----------------3---------|
D|-----------------/6---------6-5-3---|
A|-3-----3--------------------------6-|
E|------------------------------------|
   "...sky..."
e|--3--|
B|--6--|
G|--5--|
D|--3--|
A|--3--|
E|-----|

Guitar 2
e|---3-3---3----------4-4---4---------|
B|---6-6---6----------6-6---6---------|
G|---5-5---5----------5-5---5---------|
D|------------------------------------|
A|-------3---------/4-----------------|
E|-0----------------------------------|
                                     x4
e|---3-3---3----------4-4---4---------|
B|---6-6---6----------6-6---6---------|
G|---5-5---5----------5-5---5---------|
D|------------------------------------|
A|-3-----3---------/4-----------------|
E|------------------------------------|

e|--3--|
B|--6--|
G|--5--|
D|--3--|
A|--3--|
E|-----|



Riff 6
e|---------------------------|
B|---------------------------|
G|---------------------------|
D|---------------------------|
A|-------2--------1--1--1----|
E|-0-2-3----0-2-3---------3--|

e|---------------------------|
B|---------------------------|
G|---------------------------|
D|---------------------------|
A|-------2--------0h1p0---2--|
E|-0-2-3----0-2-3-------3-0--|

e|---------------------------|
B|---------------------------|
G|---------------------------|
D|-------2--------1--1--1----|
A|-0-2-3----0-2-3---------3--|
E|---------------------------|

e|---------------------------|
B|---------------------------|
G|---------------------------|
D|-------2--------0h1p0---2--|
A|-0-2-3----0-2-3-------3-0--|
E|---------------------------|


Riff 6a
e|---------------------------|
B|---------------------------|
G|---------------------------|
D|---------------------------|
A|-------2--------1--1--1----|
E|-0-2-3----0-2-3---------3--|
              "By tomorrow..."
e|-----------------------------|
B|-----------------------------|
G|-----------------------------|
D|-----------------------------|
A|-------2--------0h1p0--------|
E|-0-2-3----0-2-3-------3-0--3-|
              "I will be..."


Riff 7
e|--------------------|
B|--------------------|
G|--------------------|
D|--------------------|
A|-2-2-2-2------2-2-2-|
E|-0-0-0-0----5-0-0-0-|
   * * * *    * * * *
   "...again..."
e|----------------------------|
B|----------------------------|
G|----------------------------|
D|----------------------------|
A|---2-2-2----5-5-5-5-3-3-3-3-|
E|-7-0-0-0----3-3-3-3-1-1-1-1-|
   * * * *    * * * * * * * *
   "...I am the..."
e|--------------------|
B|--------------------|
G|--------------------|
D|--------------------|
A|-2-2-2-2------2-2-2-|
E|-0-0-0-0----5-0-0-0-|
   * * * *    * * * *
           "Tonight I am..."
e|------------------------------|
B|------------------------------|
G|------------------------------|
D|------------------------------|
A|---2-2-2----5-5-5-5-3-3-3-3---|
E|-7-0-0-0----3-3-3-3-1-1-1-1-0-|
   * * * *    * * * * * * * *
             "...the one that..."


Play Riff 5   "The secrets never..."
Play Riff 3   "It's Christmas again..."
Play Riff 4   "It's Christmas again..."
Play Riff 5   Solo Rhythm

Solo
e|-------------------------------------|
B|-------------------------------------|
G|-------------------------------------|
D|-------------------------------------|
A|-------------------------------------|
E|-------------------------------------|

e|-------------------------------------|
B|-------------------------------------|
G|-------------------------------------|
D|-------------------------------------|
A|-------------------------------------|
E|-------------------------------------|

e|-------------------------------------|
B|-------------------------------------|
G|-------------------------------------|
D|-------------------------------------|
A|-------------------------------------|
E|-------------------------------------|

e|-------------------------------------|
B|-------------------------------------|
G|-------------------------------------|
D|-------------------------------------|
A|-------------------------------------|
E|-------------------------------------|

End Solo



Riff 1a
Guitar 1
e|-------------------------|
B|-------------------------|
G|-------------------------|
D|-5--4--3--2--5--4--3--2--|
A|-5--4--3--2--5--4--3--2--|
E|-------------------------|
    "I'm falling on my face..."
e|--------------------|
B|--------------------|
G|--------------------|
D|-5-4-3-2-5-4-3-2-7--|
A|-5-4-3-2-5-4-3-2-5--|
E|-----------------5--|
   "Oh my god..."

Guitar 2
e|-------------------------|
B|-------------------------|
G|-------------------------|
D|-5--4--3--2--------------|
A|-5--4--3--2--------------|
E|-------------3--2--1--0--|

e|--------------------|
B|--------------------|
G|--------------------|
D|-5-4-3-2------------|
A|-5-4-3-2-5-4-3-2-5--|
E|--------------------|



Play Riff 3   "It's Christmas again..."
Play Riff 3   Solo Rhythm

Final time:
e|--------------------------------|
B|--------------------------------|
G|--------------------------------|
D|--------------------------------|
A|-7-7---------10-10-----12--9--9-|
E|-0-0-0-0-0-0--0--0-0-0--0-10-10-|
       * * * *       * *
e|-----------------------|
B|-----------------------|
G|-----------------------|
D|---------------------9-|
A|-------------10-9----7-|
E|-0-0-0-0-0-0--0-0-10---|
   * * * * * *

Ending Solo
e|-------------------------------------|
B|-------------------------------------|
G|-------------------------------------|
D|-------------------------------------|
A|-------------------------------------|
E|-------------------------------------|

e|-------------------------------------|
B|-------------------------------------|
G|-------------------------------------|
D|-------------------------------------|
A|-------------------------------------|
E|-------------------------------------|

e|-------------------------------------|
B|-------------------------------------|
G|-------------------------------------|
D|-------------------------------------|
A|-------------------------------------|
E|-------------------------------------|

e|-------------------------------------|
B|-------------------------------------|
G|-------------------------------------|
D|-------------------------------------|
A|-------------------------------------|
E|-------------------------------------|

End Solo

---------------------------------------------

12. LIVING DEAD

Tuning: Standard


Intro (Volume swell)
e|-----|
B|-----|
G|-----|
D|-----|
A|-----|
E|--0--|


Riff 1
Guitar 1
e|---------------------------------|
B|---------------------------------|
G|---------------------------------|
D|---------------------------------|
A|-----3-----3---3-----2-----2---2-|
E|-0-0---0-0---0---0-0---0-0---0---|
   * *   * *   *   * *   * *   *
e|---------------------------------|
B|---------------------------------|
G|---------------------------------|
D|---------------------------------|
A|-----3-----3---3-----2-----2---2-|
E|-0-0---0-0---0---0-0---0-0---0---|
   * *   * *   *   * *   * *   *

Guitar 2
e|---------------------------------|
B|---------------------------------|
G|---------------------------------|
D|---------------------------------|
A|-----3---------------2-----------|
E|---------------------------------|

e|---------------------------------|
B|---------------------------------|
G|---------------------------------|
D|---------------------------------|
A|-----3---------------2-----------|
E|---------------------------------|



Riff 2
Guitar 1
e|---------------------------------|
B|---------------------------------|
G|---------------------------------|
D|---------------------------------|
A|-----7-------7-------8-------8---|
E|-0-6---6-0-6---6-0-7---7-0-7---7-|
   * * * * * * * * * * * * * * * *
e|-----------------------------------|
B|-----------------------------------|
G|-----------------------------------|
D|-----------------------------------|
A|-----7-------7-------9---10---9----|
E|-0-6---6-0-6---6-0-8---8----8---10-|
   * * * * * * * * * * * *  * * *  *

Guitar 2
e|---------------------------------|
B|---------------------------------|
G|---------------------------------|
D|---------------------------------|
A|-------------7-------------------|
E|-0-6-----------6------------0--7-|

e|---------------------------------|
B|---------------------------------|
G|---------------------------------|
D|---------------------------------|
A|-------------7-------------------|
E|-0-6-----------6------------3--2-|



Riff 2a
Guitar 1
e|---------------------------------|
B|---------------------------------|
G|---------------------------------|
D|---------------------------------|
A|-----7-------7-------8-------8---|
E|-0-6---6-0-6---6-0-7---7-0-7---7-|
   * * * * * * * * * * * * * * * *
   "Eighteen years..."
e|-----------------------------------|
B|-----------------------------------|
G|-----------------------------------|
D|-----------------------------------|
A|-----7-------7-------9---10---9----|
E|-0-6---6-0-6---6-0-8---8----8---10-|
   * * * * * * * * * * * *  * * *  *
   "...came along..."
                    x2
e|-------------------|
B|-------------------|
G|-------------------|
D|-------------------|
A|-----9---10---9----|
E|-0-8---8----8---10-|
   "...and all this time..."

Guitar 2
e|-------------------------------------|
B|-------------------------------------|
G|-------------------------------------|
D|-------------------------------------|
A|-------------------------------------|
E|-0--6--------------7-----------------|

e|--------------------------------------|
B|--------------------------------------|
G|-------------------9-11-12-12\11-11\9-|
D|--------------------------------------|
A|-------------------7--9-10-10\-9--9\7-|
E|-0--6------------0--------------------|
                        x2
e|-----------------------|
B|-----------------------|
G|---9-11-11-12-12-11-11-|
D|-----------------------|
A|---7--9--9-10-10--9--9-|
E|-0---------------------|



Riff 3
Guitar 1
e|--------------------------------------|
B|--------------------------------------|
G|--------------------------------------|
D|--------------------------------------|
A|-5-5------8-8------7-7------8----4----|
E|-3-3-3333-6-6-6666-5-5-5555-6-66-2-22-|
       ****     ****     ****   **   **
   "...love..."
e|-----------------------|
B|-----------------------|
G|-----------------------|
D|-----------------7--6--|
A|-5-5------8-8----5--4--|
E|-3-3-3333-6-6-66-5--4--|
       ****     **
        "I'm going insane!"
e|--------------------------------------|
B|--------------------------------------|
G|--------------------------------------|
D|--------------------------------------|
A|-5-5------8-8------7-7------8----4----|
E|-3-3-3333-6-6-6666-5-5-5555-6-66-2-22-|
       ****     ****     ****   **   **
   "They sold me..."
e|-----------------------|
B|-----------------------|
G|-----------------------|
D|-----------------7--6--|
A|-5-5------8-8----5--4--|
E|-3-3-3333-6-6-66-5--4--|
       ****     **
        "...where I remain!"

Guitar 2
e|--------------------------------------|
B|--------------------------------------|
G|--------------------------------------|
D|--------------------------------------|
A|-5-5------8-8------7-7------8----4----|
E|-3-3-3333-6-6-6666-5-5-5555-6-66-2-22-|
       ****     ****     ****   **   **
e|-----------------------|
B|-----------------------|
G|-----------------------|
D|-----------------7--6--|
A|-5-5------8-8----5--4--|
E|-3-3-3333-6-6-66-------|
       ****     **
e|--------------------------------------|
B|--------------------------------------|
G|--------------------------------------|
D|--------------------------------------|
A|-5-5------8-8------7-7------8----4----|
E|-3-3-3333-6-6-6666-5-5-5555-6-66-2-22-|
       ****     ****     ****   **   **
e|-----------------------|
B|-----------------------|
G|-----------------------|
D|-----------------7--6--|
A|-5-5------8-8----5--4--|
E|-3-3-3333-6-6-66-------|
       ****     **

Guitar fill (Comes in at the end of the 2nd & 4th bars)
e|-----------------------------|
B|-----------------------------|
G|-[fades in]--6--[fades out]--|
D|-----------------------------|
A|-----------------------------|
E|-----------------------------|



Riff 4
e|----------------------------------------|
B|--------------12-12---------------13-13-|
G|---------------x--x----------------x--x-|
D|---------------9--9---------------10-10-|
A|---------------7--7----------------7--7-|
E|-000000000000--------000000000000-------|
   ************        ************
             "Living..."
e|---------------------|
B|--------------12-12--|
G|---------------x--x--|
D|---------------9--9--|
A|---------------7--7--|
E|-000000000000--------|
   ************
             "Oh..."
e|----------------------------------------|
B|----------------------------------------|
G|----------------------------------------|
D|----------------------------------------|
A|------3------4----3-------3------4----3-|
E|-2222---2222---22----2222---2222---22---|
   ****   ****   **    ****   ****   **
   "I'm feeling like..."



Play Riff 2    "Dead, dead..."
Play Riff 2a   "Eighteen years..."


Riff 1a
Guitar 1
e|---------------------------------|
B|---------------------------------|
G|---------------------------------|
D|---------------------------------|
A|-----3-----3---3-----2-----2---2-|
E|-0-0---0-0---0---0-0---0-0---0---|
   * *   * *   *   * *   * *   *
   "...love..."
e|---------------------------------|
B|---------------------------------|
G|---------------------------------|
D|---------------------------------|
A|-----3-----3---3-----2-----2---2-|
E|-0-0---0-0---0---0-0---0-0---0---|
   * *   * *   *   * *   * *   *

Guitar 2
e|---------------------------------|
B|---------------------------------|
G|--9------------------------------|
D|---------------------------------|
A|--7------------------------------|
E|---------------------------------|

e|---------------------------------|
B|---------------------------------|
G|---------------------------------|
D|---------------------------------|
A|---------------------------------|
E|---------------------------------|



Riff 1b
Guitar 1
e|---------------------------------|
B|---------------------------------|
G|---------------------------------|
D|---------------------------------|
A|-----5-----5---5-----4-----4---4-|
E|-0-0---0-0---0---0-0---0-0---0---|
   * *   * *   *   * *   * *   *
   "This life..."
e|----------------------------|
B|----------------------------|
G|----------------------------|
D|----------------------------|
A|-----8-----8---8-----7------|
E|-0-0---0-0---0---0-0----X\\-|
   * *   * *   *   * *
   "...is nothingness!"

Guitar 2
e|---------------------------------|
B|---------------------------------|
G|---------------------------------|
D|---------------------------------|
A|-----5---------------4-----------|
E|---------------------------------|

e|------------------------------|
B|------------------------------|
G|------------------------------|
D|------------------------------|
A|-----8---------------7--------|
E|--------------------------X\\-|



Riff 5
Guitar 1                      x2
e|-----------------------------|
B|-----------------------------|
G|-----------------------------|
D|-7------5------7------5------|
A|-5------3------5------3------|
E|-----------------------------|

e|-----------|
B|-----------|
G|--5--4--3--|
D|--5--4--3--|
A|-----------|
E|-----------|
   "...to the beyond!"

Guitar 2                      x2
e|-----------------------------|
B|-----------------------------|
G|-----0------0------0------0--|
D|---4------4------4------4----|
A|-5------3------5------3------|
E|-----------------------------|

e|-----------|
B|-----------|
G|--5--4--3--|
D|--5--4--3--|
A|-----------|
E|-----------|

Guitar 3
e|-----------------------------|
B|-----------------------------|
G|-----------------------------|
D|-7------5------7------5------|
A|-5------3------5------3------|
E|-----------------------------|

e|-----------------------------|
B|-----------------------------|
G|-----------------------------|
D|-4--5\4-2------7--9\7-5------|
A|-----------------------------|
E|-----------------------------|

e|-----------|
B|-----------|
G|--5--4--3--|
D|-----------|
A|-----------|
E|-----------|



Play Riff 3    Solo Rhythm
Play Riff 4    Solo Rhythm


Riff 6 (Solo Rhythm)
e|-------------------------------------------------|
B|------12-12-------------13-13-------------12-12--|
G|-------x--x--------------x--x--------------x--x--|
D|-------9--9-------------10-10--------------9--9--|
A|-------7--7--------------7--7--------------7--7--|
E|-0000--------------0000--------------0000--------|
   ****              ****              ****
e|-------------------------|
B|-------------------------|
G|-------------------------|
D|---------------------5-4-|
A|-5-5--5-8--8-7--7-6--5-4-|
E|-3-3--3-6--6-5--5-4------|
   * *  * *  * *  * *
e|------------------------|
B|------------------------|
G|------------------------|
D|---------------------6--|
A|-5-5--5-8--8-7--7-6--4--|
E|-3-3--3-6--6-5--5-4--4--|
   * *  * *  * *  * *
e|-------------------------|
B|-------------------------|
G|-------------------------|
D|---------------------5-4-|
A|-5-5--5-8--8-7--7-6--5-4-|
E|-3-3--3-6--6-5--5-4------|
   * *  * *  * *  * *
e|------------------------|
B|------------------------|
G|------------------------|
D|---------------------6--|
A|-5-5--5-8--8-7--7-6--4--|
E|-3-3--3-6--6-5--5-4--4--|
   * *  * *  * *  * *


Solo
e|-------------------------------------|
B|-------------------------------------|
G|-------------------------------------|
D|-------------------------------------|
A|-------------------------------------|
E|-------------------------------------|

e|-------------------------------------|
B|-------------------------------------|
G|-------------------------------------|
D|-------------------------------------|
A|-------------------------------------|
E|-------------------------------------|

e|-------------------------------------|
B|-------------------------------------|
G|-------------------------------------|
D|-------------------------------------|
A|-------------------------------------|
E|-------------------------------------|

e|-------------------------------------|
B|-------------------------------------|
G|-------------------------------------|
D|-------------------------------------|
A|-------------------------------------|
E|-------------------------------------|

End Solo



Play Riff 2
Play Riff 2a   "There's a rumour..."
Play Riff 3    "...theater, in London town..."
Play Riff 4    "Living, dead..."
Play Riff 6    "Living, dead..."
Play Riff 1    "All the children..."


Riff 1c
Guitar 1                          x2
e|---------------------------------|
B|---------------------------------|
G|---------------------------------|
D|---------------------------------|
A|-----5-----5---5-----4-----4---4-|
E|-0-0---0-0---0---0-0---0-0---0---|
   * *   * *   *   * *   * *   *
   "They are scared..."
e|---------------------------------|
B|---------------------------------|
G|---------------------------------|
D|---------------------------------|
A|-----7-----7---7-----6-----6---6-|
E|-0-0---0-0---0---0-0---0-0---0---|
   * *   * *   *   * *   * *   *
   "My eyes follow..."
e|--------------------------------|
B|--------------------------------|
G|--------------------------------|
D|--------------------------------|
A|-----10-----10---10-----9-----9-|
E|-0-0----0-0----0----0-0---0-0---|
   * *    * *    *    * *   * *
   "...never to be sold again."

Guitar 2                          x2
e|---------------------------------|
B|---------------------------------|
G|---------------------------------|
D|-----3---------------2-----------|
A|---------------------------------|
E|---------------------------------|

e|---------------------------------|
B|---------------------------------|
G|---------------------------------|
D|-----5---------------4-----------|
A|---------------------------------|
E|---------------------------------|

e|---------------------------------|
B|---------------------------------|
G|---------------------------------|
D|---------------------------------|
A|-----3---------------2-----------|
E|---------------------------------|


End Distortion Rhythm


Outro (Acoustic)

Riff 1
e|-------0-----------0-----------0-----------0-----|
B|-----3---3-------3---3-------6---6-------6---6---|
G|---2-------2---2-------2---5-------5---5-------5-|
D|-0-----------0-----------0-----------0-----------|
A|-------------------------------------------------|
E|-------------------------------------------------|


Solo
e|-----------------------------------------------|
B|-----------------------------------------------|
G|-----------------------------------------------|
D|------7--------3--7--5/7~----5\3-5/7~----5\3-0-|
A|-5---------------------------------------------|
E|-----------------------------------------------|

e|--------------------------------------|
B|--------------------------------------|
G|---7\---7-5---------------------------|
D|-5---------------------------5\3-5/7~-|
A|--------------------------------------|
E|--------------------------------------|

End Solo


Riff 2
e|-5--5--5-5-5--5--5-5-5--5--5-5-5--5--5-|
B|-5--5--5-5-5--5--5-5-5--5--5-5-5--5--5-|
G|-5--5--5-5-5--5--5-5-5--5--5-5-5--5--5-|
D|-7--7------7--7------7--7------7--7--7-|
A|---------------------------------------|
E|---------------------------------------|

e|-0--0--0-0-0--0--0-0-0--0--0-0-0--0--0-|
B|-0--0--0-0-0--0--0-0-0--0--0-0-0--0--0-|
G|-0--0--0-0-0--0--0-0-0--0--0-0-0--0--0-|
D|-5--5------5--5------5--5------5--5--5-|
A|-7--7------7--7------7--7------7--7--7-|
E|---------------------------------------|

e|-5--5--5-5-5--5--5-5-5--5--5-5-5--5--5--0--|
B|-5--5--5-5-5--5--5-5-5--5--5-5-5--5--5--0--|
G|-5--5--5-5-5--5--5-5-5--5--5-5-5--5--5--0--|
D|-7--7------7--7------7--7------7--7--7--5--|
A|----------------------------------------7--|
E|-------------------------------------------|


Guitar fills:
e|-17--15-17-----------|
B|--------------15-17--|
G|---------------------|
D|---------------------|
A|---------------------|
E|---------------------|

e|-17--17-------------17-15-17----15---------------|
B|-----------15/17-------------17----17--[15]17r15-|
G|-------------------------------------------------|
D|-------------------------------------------------|
A|-------------------------------------------------|
E|-------------------------------------------------|



Play Riff 1

Guitar fill:
e|------------|
B|-[15]17r15--|
G|------------|
D|------------|
A|------------|
E|------------|

Extra guitar over Riff 1
e|-------------------------------------|
B|-------------------------------------|
G|-------------------------------------|
D|-------------------------------------|
A|-------------------------------------|
E|-------------------------------------|

e|-------------------------------------|
B|-------------------------------------|
G|-------------------------------------|
D|-------------------------------------|
A|-------------------------------------|
E|-------------------------------------|


Song fades out


Notation:

10^        = bend a quarter step.
10b11      = bend a half step.
10b12      = bend a full step.
10b12r10   = bend and release.
[10]12     = pre-bend.
[10]12r10  = pre-bend and release.
{14}       = pick the 14th fret while holding the most 
             previous bend.
<17>       = touch the string above the 17th fret while 
             previous note(s) is(are) still ringing.

10b13*     = tremolo bar bend, from the 10th fret to the 13th fret.
7d4*       = tremolo bar dive, from the 7th fret to the 4th fret. 
12~*       = tremolo bar vibrato.

x   =  mute with fret-hand
*   =  palm mute
X\\ =  pick slide
h   =  hammer-on
p   =  pull-off
~   =  vibrato
t   =  finger tap
/   =  slide up
\   =  slide down
h.  =  natural harmonics
a   =  artificial harmonics
(9) =  ghost note
tm  =  trem picking
tr  =  trill

comments
We did not receive enough feedback on this tab! Please rate:
print report bad tab
1 2 3 4 5
I want to post or [tab]
guest
You may want to rate the tab now too:
select rating
Please do not post tabs as comments. Select "correction" instead!