Oops, an error
Loading. Please wait.

Them Tab

ver1
ver1

Album

Whole song

Interactive

More versions @911Tabs.com
4,726 views 6 this week
no commentswrite comment
1 2 3 4 5
worth learning
x 3
Autoscroll
+/-
esc
set tempo
stop
Contributor
Difficulty
advanced
Hey! There's an official Ultimate Guitar app which is ideal
for learning songs when you're away from computer. Get the app
WARNING: You are trying to view
                                    content from Ultimate-Guitar.com
                                    in an unauthorized application,
                                    which is prohibited.

                                    Please use an official Ultimate
                                    Guitar Tabs application for iPhone,
                                    iPad or Android to access legitimate
                                    chords, guitar, bass, and drum tabs
                                    from Ultimate-Guitar.com database.

                                    Type "ultimate guitar tabs" in Apple
                                    App Store's or Android Market's
                                    search to find the application.
Band - King Diamond
Album - Them

Track Listings:
1. Welcome Home
2. The Invisible Guests
3. Tea
4. Mother's Getting Weaker
5. Bye, Bye Missy
6. A Broken Spell
7. The Accusation Chair
8. Them
9. Twilight Symphony

-------------------------------------------------

1. WELCOME HOME
Tuning: Standard

Riff 1
e|------------------------------------------|
B|------------------------------------------|
G|------------------------------------------|
D|------------------------------------------|
A|-------------7h8p7p5h7--------------------|
E|-5-5-5-5-5-5------------5-5-5-5-5-5-8-7-3-|
   * * * * * *            * * * * * * * * * 
e|------------------------------------------|
B|------------------------------------------|
G|------------------------------------------|
D|------------------------------------------|
A|-------------7h8p7p5h7--------------3---3-|
E|-5-5-5-5-5-5------------3-3-3-3-3-3---3---|
   * * * * * *            * * * * * * * * * 


Riff 2
e|--------------------------------------------|
B|--------------------------------------------|
G|--------------------------------------------|
D|--------------------------------------------|
A|-------------9h10p9p7h9---------------------|
E|-7-7-7-7-7-7-------------7-7-7-7-7-7-10-9-5-|
   * * * * * *             * * * * * *  * * * 
   "Grandma...."
e|-------------------------------------------|
B|-------------------------------------------|
G|-------------------------------------------|
D|-------------------------------------------|
A|-------------9h10p9p7h9--------------5---5-|
E|-7-7-7-7-7-7-------------5-5-5-5-5-5---5---|
   * * * * * *             * * * * * * * * * 
              "Welcome home..."


Riff 3
e|------------|
B|------------|
G|------------|
D|------------|
A|---4---4----|
E|-4---4---3~-|
   * * *   a


Riff 4                                          x2
e|-----------------------------------------------|
B|-------------------3---------------------------|
G|-------------------2---------------------------|
D|-------------------0-----------------5---6---6-|
A|-4-4-4-4-2---4-4-4-0---4-4-4-4-2---3---3---4---|
E|-2-2-2-2-0---2-2-2-----2-2-2-2-0---------------|
   * * * *     * * *     * * * * 
   "Let me help you..."
e|-------------|
B|-------------|
G|-------------|
D|---7---8---8-|
A|-5---5---6---|
E|-------------|


Play Riff 2   "Grandma..."
Play Riff 3
Play Riff 4   "Let me help you..."

Riff 5 (Solo Rhythm)
e|-----------------------------------------------------|
B|-----------------------------------------------------|
G|-----------------------------------------------------|
D|----------------5---4------------------------------5-|
A|------------7~----7---5--------------7~--------5-----|
E|-0--0-0-0-0---------------0--0-0-0-0-----5-6-7---7---|
   *  * * * *               *  * * * * 
e|-----------------------------------------------|
B|-----------------------------------------------|
G|-----------------------------------------------|
D|----------------------7------------------5---7-|
A|------------7~--5-2-4-5--------------7~--3---5-|
E|-0--0-0-0-0-----3-0-2-----0--0-0-0-0-----------|
   *  * * * *     * * *     *  * * * * 
e|-----------------------------------------------------|
B|-----------------------------------------------------|
G|-----------------------------------------------------|
D|----------------5---4------------------------------5-|
A|------------7~----7---5--------------7~--------5-----|
E|-0--0-0-0-0---------------0--0-0-0-0-----5-6-7---7---|
   *  * * * *               *  * * * * 
e|-----------------------------------------------|
B|-----------------------------------------------|
G|-----------------------------------------------|
D|----------------------7------------------5---7-|
A|------------7~--5-2-4-5--------------7~--5---5-|
E|-0--0-0-0-0-----3-0-2-----0--0-0-0-0-----------|
   *  * * * *     * * *     *  * * * * 

Solo
e|-15S19-19b21-19-------------14h17p14-----|
B|-------------------------15--------------|
G|----------------------14-------------15--|
D|----------------14-16--------------------|
A|-----------------------------------------|
E|-----------------------------------------|

e|--------------------------------14h17p14-------------13h16p13-|
B|-17-14----16-13----15-12-----------------15-------14----------|
G|-------16-------14-------13-13--------------14-13-------------|
D|--------------------------------------------------------------|
A|--------------------------------------------------------------|
E|--------------------------------------------------------------|

e|-------------12h15-12-14----------------------|
B|-14-------13-------------17-15-14S12----------|
G|----13-12----------------------------14-12-11-|
D|----------------------------------------------|
A|----------------------------------------------|
E|----------------------------------------------|

e|------------------------------------------------------------|
B|------------------------------------------------------------|
G|----------------------------11-10----10-9-------------------|
D|-14-12-10-------------------------11------11-11-10----10----|
A|----------14-12-10---------------------------------11----11-|
E|-------------------14-12-10---------------------------------|

e|--------------------------------------------------------|
B|-----------------------------------------10-12-14S15-15-|
G|-9h11h12-------------------------9-11-12----------------|
D|---------9h11h12---------9h11h12------------------------|
A|-----------------9h10h12--------------------------------|
E|--------------------------------------------------------|

e|-17b19-17-17--12h17p12h15p12h17p15p12h17p12h15-|
B|-----------------------------------------------|
G|-----------------------------------------------|
D|-----------------------------------------------|
A|-----------------------------------------------|
E|-----------------------------------------------|

e|-12h17p12h15p12h17-15--|
B|-----------------------|
G|-----------------------|
D|-----------------------|
A|-----------------------|
E|-----------------------|

End Solo


Play Riff 2   "Wait til you see..."
Play Riff 3   "...found..."
Play Riff 4   "Let me help you..."

Riff 5a
e|-----------------------------------------------------|
B|-----------------------------------------------------|
G|-----------------------------------------------------|
D|----------------5---4------------------------------5-|
A|------------7~----7---5--------------7~--------5-----|
E|-0--0-0-0-0---------------0--0-0-0-0-----5-6-7---7---|
   *  * * * *               *  * * * * 
e|-----------------------------------------------|
B|-----------------------------------------------|
G|-----------------------------------------------|
D|----------------------7------------------5---7-|
A|------------7~--5-2-4-5--------------7~--5---5-|
E|-0--0-0-0-0-----3-0-2-----0--0-0-0-0-----------|
   *  * * * *     * * *     *  * * * * 

Riff 6 (Guitar 2 plays notes in () )
e|--------------------------------------------------|
B|--------------------------------------------------|
G|--------------------------------------------------|
D|------------(5)--------------(2)--------------(4)-|
A|-------------7----------------3----------------5--|
E|-0--0-0-0-0-------0--0-0-0-0-------0--0-0-0-0-----|
   *  * * * *       *  * * * *       *  * * * *
	    "Missy and Mother..."	
e|--------------------|
B|--------------------|
G|--------------------|
D|----------(2)---(4)-|
A|-(2)-------3-----5--|
E|--3-----------------|
   "...meet you..."
e|--------------------------------------------------|
B|--------------------------------------------------|
G|--------------------------------------------------|
D|------------(5)--------------(2)--------------(4)-|
A|-------------7----------------3----------------5--|
E|-0--0-0-0-0-------0--0-0-0-0-------0--0-0-0-0-----|
   *  * * * *       *  * * * *       *  * * * *
            "How strange..."
e|----------------|
B|----------------|
G|----------------|
D|-----------5--4-|
A|-(2)-------5--5-|
E|--3-------------|
	"...all right?"


Riff 7
e|---------------------------|
B|---------------------------|
G|---------------------------|
D|------4p2-4p2------5p2-5p2-|
A|-2222---------2222---------|
E|---------------------------|
   ****         ****
e|------------------------------|
B|------------------------------|
G|------------------------------|
D|------4p2-4p2-----------------|
A|-2222---------5p2-4p2-5p2-4p2-|
E|------------------------------|
   **** 

Riff 8 (Solo Rhythm)
e|---------------------|
B|---------------------|
G|---------------------|
D|---------------------|
A|---------------------|
E|-4-4-4-4-4-4-4-4-...-|
   * * * * * * * * 
e|---------------------|
B|---------------------|
G|---------------------|
D|---------------------|
A|---------------------|
E|-0-0-0-0-0-0-0-0-...-|
   * * * * * * * * 
e|---------------------|
B|---------------------|
G|---------------------|
D|---------------------|
A|---------------------|
E|-4-4-4-4-4-4-4-4-...-|
   * * * * * * * * 
e|---------------------|
B|---------------------|
G|---------------------|
D|---------------------|
A|---------------------|
E|-2-2-2-2-2-2-2-2-...-|
   * * * * * * * * 

Riff 9 (Solo Rhythm)
e|---------------------------------------------|
B|---------------------------------------------|
G|---------------------------------------------|
D|-4-4---------5-5---------4-4---------5-5-5---|
A|-2-2-2-2-2-2-2-2-2-2-2-2-2-2-2-2-2-2-2-2-2-4-|
E|-------------------------------------------2-|
       * * * *     * * * *     * * * *
e|---------------------------------------------|
B|---------------------------------------------|
G|---------------------------------------------|
D|-------------------------------------------2-|
A|-5-5---------7-7---------5-5---------7-7-7-0-|
E|-3-3-3-3-3-3-3-3-3-3-3-3-3-3-3-3-3-3-3-3-3---|
       * * * *     * * * *     * * * *
e|---------------------------------------------|
B|---------------------------------------------|
G|---------------------------------------------|
D|-4-4---------5-5---------4-4---------5-5-5---|
A|-2-2-2-2-2-2-2-2-2-2-2-2-2-2-2-2-2-2-2-2-2-2-|
E|-------------------------------------------0-|
       * * * *     * * * *     * * * *


Riff 10 (Solo Rhythm)
e|---------------------|
B|---------------------|
G|---------------------|
D|---------------------|
A|---------------------|
E|-1-1-1-1-1-1-1-1-...-|
   * * * * * * * * 
e|---------------------|
B|---------------------|
G|---------------------|
D|---------------------|
A|---------------------|
E|-4-4-4-4-4-4-4-4-...-|
   * * * * * * * * 
e|---------------------|
B|---------------------|
G|---------------------|
D|---------------------|
A|---------------------|
E|-1-1-1-1-1-1-1-1-...-|
   * * * * * * * * 


Solo (over riffs 8,9, and 10)

   Dip With Bar           Floyd Rose Warbles/Flutters Classic ANDY!
  ~~~~~~~~~~~~~~~~~~~~~~~~~~~~~~~~~~~~~~~~~~~~~~~~~~~~~~~~
e|-------------------------|-----------------------------------|
B|-12----------------------|-----------------------------------|
G|----------14-------13----|----13----15----13----15----13-----|
D|-------------------------|-----------------------------------|
A|-------------------------|-----------------------------------|
E|-------------------------|-----------------------------------|

                                    A.H.
e|--------------------------------------|
B|----------8h11p10p8-------------------|
G|---7h9h11-----------11p9p7--------[7]-|
D|-9-------------------------11p9p7-----|
A|--------------------------------------|
E|--------------------------------------|

e|-14----------19-18-19-16-19-14-19----19----19----19----|
B|----15----15----------------------17----16----14-------|
G|-------16-------------------------------------------16-|
D|-------------------------------------------------------|
A|-------------------------------------------------------|
E|-------------------------------------------------------|
     Burn!
e|---------------------------------------------|
B|---------------------------------------------|
G|-11-12-14-12-11------------------------------|
D|----------------14-12-11---------------------|
A|-------------------------14-12-10-9-7--------|
E|--------------------------------------10-9-7-|

      Nice Harmony Section, Eerie!
                ~                ~
e|---|-------------------------------|-14-10----------10-14-10--------------|
B|---|--------8--7---------10--8--7--|-------12----12----------12-----------|
G|---|-----7------------7------------|----------11----------------11--------|
D|---|-/9------------9---------------|-------------------------------12-----|
A|---|-------------------------------|----------------------------------14--|
E|-5-|-------------------------------|--------------------------------------|

                                  More Classic Andy  Warbles!
                          A.H.  ~~~~~~~~~~~~~~~~~~~~~~~~~~~~~~~~~~~~~~~~~~
e|-----------------------------|-----------------------------------------------|
B|-----------------------------|-17--15--14--15--14--12--14--12--10--12--10----|
G|-------------------------[9]-|-----------------------------------------------|
D|-12p10p9---------9h10h12-----|-----------------------------------------------|
A|---------12p10p9-------------|-----------------------------------------------|
E|-----------------------------|-----------------------------------------------|

   ~~~~~~~~~~                          ~~~~~~~~~~                        ~~~~~~~~
e|--------------------------------------------------------------------------------|
B|-------------13p11p10----11p10--------------------------------------------------|
G|-10--12--14-----------12-------12p10--8--10--12--9h11h12p11p9-------------------|
D|--------------------------------------------------------------12p11p9--10--8--7-|
A|--------------------------------------------------------------------------------|
E|--------------------------------------------------------------------------------|

End Solo


Riff 11
e|---------------------------------------|
B|---------------------------------------|
G|-4----------6----------4----------6--4-|
D|-4----------4----------4----------4--4-|
A|-2--2-2-2-2-2--2-2-2-2-2--2-2-2-2-2--2-|
E|---------------------------------------|
      * * * *    * * * *    * * * *    
   "Grandma, what was it like..."

e|---------------------------------------|
B|---------------------------------------|
G|-6----------8----------6----------8--6-|
D|-6----------6----------6----------6--6-|
A|-4--4-4-4-4-4--4-4-4-4-4--4-4-4-4-4--4-|
E|---------------------------------------|
      * * * *    * * * *    * * * *
   "To be on that holiday site..."
                                                     x2
e|----------------------------------------------------|
B|----------------------------------------------------|
G|-8------------10------------11-------------10--8-10-|
D|-8-------------8-------------8--------------8--8--8-|
A|-6-6-6-6-6-6-6-6-6-6-6-6-6-6-6-6-6-6-6-6-6--6--6--6-|
E|----------------------------------------------------|
     * * * * * *   * * * * * *   * * * * * * 
   "Oh it could have been worse..."


Riff 12
e|-------------------------------------------|
B|-------------------------------------------|
G|-------------------------------------------|
D|-------------------------------------------|
A|------7h8p7p0-7h8p7p0-7h8p7p0------7h8p7p0-|
E|-0000-------------------------0000---------|
   ****                         ****
e|------------------|
B|------------------|
G|------------------|
D|------------------| 
A|-12p0-8p0-7p0-5p0-|
E|------------------| 
   "Grandma who are 'They' ?"
e|-------------------------------------------|
B|-------------------------------------------|
G|-------------------------------------------|
D|-------------------------------------------|
A|------7h8p7p0-7h8p7p0-7h8p7p0------7h8p7p0-|
E|-0000-------------------------0000---------|
   ****                         ****
e|--------------------------------------|
B|--------------------------------------|
G|------------------------------------7-|
D|-------------------12p0-8p0-7p0-5p0-5-| 
A|-12p0-8p0-7p0-5p0---------------------|
E|--------------------------------------| 
  "Never mind you dirty..."


Riff 7a
Guitar 1
e|---------------------------|
B|---------------------------|
G|---------------------------|
D|------4p2-4p2------5p2-5p2-|
A|-2222---------2222---------|
E|---------------------------|
   ****         ****
e|------------------------------|
B|------------------------------|
G|------------------------------|
D|------4p2-4p2-----------------|
A|-2222---------5p2-4p2-5p2-4p2-|
E|------------------------------|
   **** 
Guitar 2
e|---------------------------|
B|---------------------------|
G|---------------------------|
D|------7p5-7p5------9p5-9p5-|
A|-5555---------5555---------|
E|---------------------------|
   ****         ****
e|------------------------------|
B|------------------------------|
G|------------------------------|
D|------7p5-7p5-----------------|
A|-5555---------9p5-7p5-9p5-7p5-|
E|------------------------------|
   **** 



Riff 13                                x2
e|--------------------------------------|
B|--------------------------------------|
G|--------------------------------------|
D|--------------------------------------|
A|----------66666666-5555555555---------|
E|-44444444---------------------467-467-|
   ******** ******** ********** *** ***
   "Let us go inside..."
e|--------------------------------------|
B|--------------------------------------|
G|--------------------------------------|
D|--------------------------------------|
A|----------33333333-2222222222---------|
E|-11111111---------------------134-134-|
   ******** ******** ********** *** ***
  " 'They' are still alive..."
e|--------------------------------------|
B|--------------------------------------|
G|--------------------------------------|
D|--------------------------------------|
A|----------55555555-4444444444---------|
E|-33333333---------------------356-356-|
   ******** ******** ********** *** ***
  "...can you feel..."


Riff 12a
e|-------------------------------------------|
B|-------------------------------------------|
G|-------------------------------------------|
D|-------------------------------------------|
A|------7h8p7p0-7h8p7p0-7h8p7p0------7h8p7p0-|
E|-0000-------------------------0000---------|
   ****                         ****
e|------------------|
B|------------------|
G|------------------|
D|------------------| 
A|-12p0-8p0-7p0-5p0-|
E|------------------| 
   "Can you feel 'Their' eyes ?"
e|-------------------------------------------|
B|-------------------------------------------|
G|-------------------------------------------|
D|-------------------------------------------|
A|------7h8p7p0-7h8p7p0-7h8p7p0------7h8p7p0-|
E|-0000-------------------------0000---------|
   ****                         ****
e|------------------------------------|
B|------------------------------------|
G|------------------------------------|
D|-------------------12p0-8p0-7p0-5p0-| 
A|-12p0-8p0-7p0-5p0-------------------|
E|------------------------------------| 
  "Now that you are..."
e|---------------------|
B|---------------------|
G|---------------------|
D|-------------------9-| 
A|-12p0-8p0-7p0-5p0--7-|
E|---------------------|
  "...better be my friend."

-------------------------------------------------------------

2. THE INVISIBLE GUESTS

Tuning: Standard


Riff 1 (Slight palm mute, Guitar 2 plays notes in () )
e|---------------------------------------------------------|
B|---------------------------------------------------------|
G|---------------------------------------------------------|
D|-------------------------------------------(222-333-2h3)-|
A|-000-8p0-0-7p0-000-8p0-0-7p0-000-8p0-0-7p0--333-555-3h5--|
E|---------------------------------------------------------|


Riff 2 (Slight palm mute, Guitar 2 plays notes in () )
e|---------------------------------------------------------|
B|---------------------------------------------------------|
G|---------------------------------------------------------|
D|---------------------------------------------------------|
A|-------------------------------------------(222-333-2h3)-|
E|-000-8p0-0-7p0-000-8p0-0-7p0-000-8p0-0-7p0--333-555-3h5--|

e|---------------------------------------------------------|
B|---------------------------------------------------------|
G|---------------------------------------------------------|
D|---------------------------------------------------------|
A|-------------------------------------------(555-777-5h7)-|
E|-000-8p0-0-7p0-000-8p0-0-7p0-000-8p0-0-7p0--777-888-7h8--|


Play Riff 1   Solo Rhythm

                     
Riff 3 (Solo Rhythm)
Guitar 1
e|------------------------------------|
B|------------------------------------|
G|------------------------------------|
D|------4-3------------------4-3----5-|
A|-2----2-1-------------2----2-1----3-|
E|-0--0------00-2h3-2h3-0--0------0-3-|
      *      **            *      *

Guitar 2
e|------------------------------------|
B|------------------------------------|
G|------------------------------------|
D|----------------------------------5-|
A|-2----6-5-------------2----6-5----3-|
E|-0--0------00-2h3-2h3-0--0------0-3-|
      *      **            *      *

Play Riff 1    Solo Rhythm
Play Riff 2    "Late that night..."
Play Riff 1    "...insane..."
Play Riff 3    "...mine, it's Grandma's room..."
Play Riff 1    Solo Rhythm
Play Riff 2    "As I stood there..."
Play Riff 1    "...eyes..."
Play Riff 3    "...room, speaking to no one..."


Riff 4
e|---------------------------|
B|---------------------------|
G|---------------------------|
D|-4----6-7----9---11-12--11-|
A|-2----4-5----7----9-10---9-|
E|---------------------------|
        *           *
  "Cups were rising..."
e|-------------------------|
B|-------------------------|
G|-------------------------|
D|-4----6-7----6-6-6---7-6-|
A|-2----4-5----4-4-4-4-5-4-|
E|-------------------2-----|
        *        
  "...and then emptied..."
e|---------------------------|
B|---------------------------|
G|---------------------------|
D|-4----6-7----9---11-12--11-|
A|-2----4-5----7----9-10---9-|
E|---------------------------|
        *           *
  "Suddenly the door..."
e|-------------------------|
B|-------------------------|
G|-------------------------|
D|-4----6-7----6-6-6-6-6-5-|
A|-2----4-5----4-4-4-4-4-3-|
E|-------------------------|
        *        
  "...and Grandma said..."                                                          


Riff 5 (Solo Rhythm)                    x2                  
e|---------------------------------------|
B|---------------------------------------|
G|---------------------------------------|
D|---------------------------------------|
A|------3--------3---5------3--------3-2-|
E|-2222---2-2--2---3---2222---2-2--2---0-|
   ****   * *  *   *   ****   * *  *                                                                            

Riff 6 (Solo Rhythm)                x2               
e|-----------------------------------|
B|-----------------------------------|
G|-----------------------------------|
D|--------------10-------------------|
A|---------------8-------------------|
E|-55555-55-555-----55555-55-555-5-3-|
   ***** ** ***     ***** ** *** * *

Riff 7
Guitar 1
e|-------------------------------------|
B|-------------------------------------|
G|-------------------------------------|
D|-------------------------------------|
A|-------------------------------------|
E|-88888888-77777777-66666666-55555555-|
   ******** ******** ******** ********
  "Missy and mother..."
e|--------------------------------------|
B|--------------------------------------|
G|--------------------------------------|
D|--------------------------------------|
A|--------------------------------------|
E|-88888888-77777777-66666666-5-0-0-0-0-|
   ******** ******** ******** * * * * *            
  "If they could see me..."

Guitar 2
e|-------------------------------------|
B|-------------------------------------|
G|-------------------------------------|
D|-------------------------------------|
A|-7--------6--------5--------4--------|
E|-------------------------------------|

e|--------------------------------------|
B|--------------------------------------|
G|--------------------------------------|
D|--------------------------------------|
A|-7--------6--------5------------------|
E|----------------------------5-0-0-0-0-|
                              * * * * * 


Play Riff 5   Solo Rhythm
Play Riff 6   Solo Rhythm
Play Riff 7   "Grandmother said..."

Riff 1a
Guitar 1 (Slight palm mute)
e|-------------------------------------------|
B|-------------------------------------------|
G|-------------------------------------------|
D|----------------------------2-2--2-2----2--|
A|-000-8p0-0-7p0-000-8p0-0-7\-0-0--0-0----0--|
E|-------------------------------------------|

Guitar 2
e|-------------------------------------------|
B|-------------------------------------------|
G|-------------------------------------------|
D|-------------2----------(2)-------------2--|
A|-------------0----------(0)-------------0--|
E|-------------------------------------------|


Play Riff 2   "I will let you..."
Play Riff 1   "The secret of Amon..."
Play Riff 3   "...sleep, now go back..."
Play Riff 4   Solo Rhythm

Riff 8
e|-------------------------------------|
B|-----------------------------------3-|
G|-----------------------------------0-|
D|-----------------------------------0-|
A|-----------------------------------x-|
E|-2-2-2-2-2-0-2----2-2-2-2-2-0-2----3-|
   * * * * * * *    * * * * * * *
e|-------------------------------------|
B|-------------------------------------|
G|-------------------------------------|
D|---------------------------------2-4-|
A|---------------------------------0-2-|
E|-2-2-2-2-2-0-2----2-2-2-2-2-0-2------|
   * * * * * * *    * * * * * * *
e|-------------------------------------|
B|-----------------------------------3-|
G|-----------------------------------0-|
D|-----------------------------------0-|
A|-----------------------------------x-|
E|-2-2-2-2-2-0-2----2-2-2-2-2-0-2----3-|
   * * * * * * *    * * * * * * *
e|-------------------------------------|
B|-------------------------------------|
G|-------------------------------------|
D|---------------------------------2---|
A|---------------------------------0-2-|
E|-2-2-2-2-2-0-2----2-2-2-2-2-0-2----0-|
   * * * * * * *    * * * * * * *


Play Riff 4   "Cups were rising..."
Play Riff 5   "Go to sleep..."

Riff 5a
e|---------------------------------------|
B|---------------------------------------|
G|---------------------------------------|
D|---------------------------------------|
A|------6--------6---8------6--------6-5-|
E|-5555---5-5--5---6---5555---5-5--5---3-|
   ****   * *  *   *   ****   * *  *           


Riff 7
Guitar 1
e|-------------------------------------|
B|-------------------------------------|
G|-------------------------------------|
D|-------------------------------------|
A|-------------------------------------|
E|-88888888-77777777-66666666-55555555-|
   ******** ******** ******** ********
  "Missy and mother..."
e|----------------------------------------------------|
B|----------------------------------------------------|
G|----------------------------------------------------|
D|----------------------------------------------------|
A|--------------------------------------4----2--------|
E|-88888888-77777777-66666666-5-0-0-0-0-2----0-[dive]-|
   ******** ******** ******** * * * * *            
  "If they could see me..."

Guitar 2
e|-------------------------------------|
B|-------------------------------------|
G|-------------------------------------|
D|-------------------------------------|
A|-7--------6--------5--------4--------|
E|-------------------------------------|

e|----------------------------------------------------|
B|----------------------------------------------------|
G|----------------------------------------------------|
D|----------------------------------------------------|
A|-7--------6--------5------------------4----2--------|
E|----------------------------5-0-0-0-0-2----0-[dive]-|
                              * * * * * 

  
Ending (Guitar 2 plays notes in () )
e|---------------------------------------|
B|---------------------------------------|
G|---------------------------------------|
D|-(/5-7~)-(/4-5~)-----------------------|
A|--/7-9~---/5-7~--(/4-5~)-(2)-----------|
E|------------------/5-7~---3---0-(dive)-|

----------------------------------------------------------------

3. TEA

Tuning: Standard

Riff 1
e|--------------------------------|
B|--------------------------------|
G|---------5/7\5----------------0-|
D|---------3/5\3--------------0---|
A|-3--2-----------3--2------2-----|
E|-1--0-----------1--0----3-------|

e|--------------------------|
B|--------------------------|
G|---------5/7\5------------|
D|---------3/5\3----------7-|
A|-3--2-----------3--2----5-|
E|-1--0-----------1--0----5-|


Riff 2
Guitar 1
e|------------------------------------|
B|------------------------------------|
G|-----------0-----0-----0--2-0h2p0---|
D|---------2-----0-----0------------3-|
A|---0-2-3-----2-----1----------------|
E|-3----------------------------------|

e|-------------------------|
B|-------------------------|
G|-----0-----0-------0-----|
D|---2-----0-------0-------|
A|-3-----2-------2-------2-|
E|-------------3-------2-0-|

Guitar fill
e|----------------------------|
B|----------------------------|
G|----------------------------|
D|----------[silent]----------|
A|----------------------------|
E|----------------------------|

e|-------------------------|
B|-------------------------|
G|-------------------------|
D|-------------5-------7-9-|
A|-------------------------|
E|-------------------------|


Guitar fill (12 string acoustic)
e|------------------------------------|
B|------------------------------------|
G|---------0-----0-----0--------------|
D|-----------0-----0-----0------------|
A|------------------------------------|
E|------------------------------------|

e|-------------------------|
B|-------------------------|
G|---0-----0---------------|
D|-----0-----0-------------|
A|-------------------------|
E|-------------------------|


Riff 3
e|---------------------------------------|
B|---------------------------------------|
G|---------------------------------------|
D|-------3-------3-------3------7/8-7--8-|
A|---0-2-3-------3-------3------5/6-5--6-|
E|-3--------0-0-----0-0-----0-0----------|
            * *     * *     * *      
  "On the following..."
e|-----------------------------|
B|-----------------------------|
G|-----------------------------|
D|-3-------2----------3------8-|
A|-3-------2----------3------6-|
E|----0-0----0-0-0-0----0-0----|
      * *    * * * *    * * 
  "Grandma came..."
e|---------------------------------|
B|---------------------------------|
G|---------------------------------|
D|-3-------3-------3------7/8-7--8-|
A|-3-------3-------3------5/6-5--6-|
E|----0-0-----0-0-----0-0----------|
      * *     * *     * * 
  " 'Wake up King'..."
e|-----------------------------------|
B|-----------------------------------|
G|-----------------------------------|
D|-3-----------2-----------3-------8-|
A|-3-----------2-----------3-------6-|
E|----0-0-0-0-----0-0-0-0-----0-0----|
      * * * *     * * * *     * *
  "I am gonna show..."


Play Riff 2   "Oh, it is time for tea..."
Play Riff 3   "Even your mother..."

Riff 3a
Guitar 1
e|---------------------------------|
B|---------------------------------|
G|---------------------------------|
D|-3-------3-------3------7-8-7--8-|
A|-3-------3-------3------5-6-5--6-|
E|----0-0-----0-0-----0-0----------|
      * *     * *     * * 
  "Then it cut..."
e|-----------------------------------|
B|-----------------------------------|
G|-----------------------------------|
D|-3-----------2-----------3-------8-|
A|-3-----------2-----------3-------6-|
E|----0-0-0-0-----0-0-0-0-----0-0----|
      * * * *     * * * *     * *
  "...in my mother's little hand..."

Guitar 2
e|-----------------------------------|
B|-----------------------------------|
G|-9-----------4-----------5-------8-|
D|-----------------------------------|
A|-7-----------2-----------3-------6-|
E|-----------------------------------|


Play Riff 2  "Oh, it is time for tea..."
Leave off last chord for riff 2


Riff 4
e|------------------------------------|
B|------------------------------------|
G|------------------------------------|
D|---9-------------------9---------10-|
A|---7-7---7---7h8p7p0---7-7---7----8-|
E|-0-----0---0---------0-----0---0----|
   *     *   *         *     *   *
e|-------------------------------|
B|-------------------------------|
G|-------------------------------|
D|---9-------------------9-----7-|
A|---7-7---7---7h8p7p0---7-7---5-|
E|-0-----0---0---------0-----0---|
   *     *   *         *     *  


Riff 5 (Solo Rhythm)
e|-------------------------------------|
B|-------------------------------------|
G|-------------------------------------|
D|---6-6----6---6h7p6p0---6-6---6------|
A|-----------------------------------9-|
E|-4-----4----4---------4-----4---4--7-|
   *     *    *         *     *   *
e|---------------------------------|
B|---------------------------------|
G|---------------------------------|
D|---6-6----6---6h7p6p0---6-6------|
A|-------------------------------4-|
E|-4-----4----4---------4-----4--2-|
   *     *    *         *     *

Play Riff 4  Solo Rhythm
Play Riff 5  Solo Rhythm

Riff 6
e|---------------------------------------------------|
B|---------------------------------------------------|
G|---------------------------------------------------|
D|-5-5-5-4----5-5-4-5-4-4-4-5-5-5-4--------0-----0---|
A|-3-3-3-2----3-3-2-3-2-2-2-3-3-3-2------2-----0-----|
E|-------------------------------------3-----2-----0-|
   * * *      * * * * * * * * * *      * * * * * * *

e|----------------------------------------------|
B|----------------------------------------------|
G|----------------------------------------------|
D|-5-5-5-4----5-5-4-5-4-4-4-5-5-5-4--------0--3-|
A|-3-3-3-2----3-3-2-3-2-2-2-3-3-3-2------2----1-|
E|-------------------------------------3------1-|
   * * *      * * * * * * * * * *      * * * 


Play Riff 4  "Blood was running..."
Play Riff 5  " 'A bit of this in a cup...' "
Play Riff 4  "You will hear 'Them'..."
Play Riff 5  "What I saw..."
Play Riff 6  "I really hope this dream..."
Play Riff 2  Leave off the first 3 notes  (Solo Rhythm)

Solo...transcribed by :   Peter Lidström

    C B  Bb A    C     B     C             Em


E|-------------|-----------------10-8-7--------|-----------------------
B|-------8~----|---8-----8-----8--------10-8~--|-----------------------
G|-9~-7~----6~-|-9---9-7---7-7-----------------|-----------------------
D|-------------|-------------------------------|-----------------------
A|-------------|-------------------------------|-----------------------
E|-------------|-------------------------------|-----------------------


   C                Em/B               Bb                A        C


E|-15p12----------12-19p15----------15-19-17-15-----------------|----12-
B|-------13----13----------17----17-------------19-17-15--------|-13----
G|----------12----------------16-------------------------16~----|-------
D|--------------------------------------------------------------|-------
A|--------------------------------------------------------------|-------
E|--------------------------------------------------------------|-------
C maj arp        E min arp

      B         C                          Em        C


E|-------12--------------12-14-15-14-12-14-15~--|----19p15-------14p17-
B|-13-12----12--12-13-15------------------------|----------17----------
G|----------------------------------------------|-------------16-------
D|----------------------------------------------|----------------------
A|----------------------------------------------|----------------------
E|----------------------------------------------|----------------------
                                                   Em sw      D maj sw

                          Em/B
                                       (Blurr picking - no control ...)

E|-14-------12p15-12-------10p14-10-----------------12-----------------
B|----15-------------13-------------12-----12-13-15--------------------
G|-------14-------------12-------------11------------------------------
D|-----------------------------------------------------9-12-10-9-12-10-
A|---------------------------------------------------------------------
E|---------------------------------------------------------------------
         C maj sw       Bmin sw (This part is pretty blurry & sloppy...)

                                    A         C                 Em/B


E|----------------------------15b17-----15\-|--------------------------
B|------------------------------------------|-8p0-5-0----------5p0-1-0-
G|-------------------9-10-12----------------|---------%--%--%----------
D|-9----------------------------------------|--------------------------
A|---12-10-9-12-10-9------------------------|--------------------------
E|------------------------------------------|--------------------------


           Bb                     Em


E--------------------------12p7-------||---------
B------------------5p0-5-0------8----*||---------
G-%--%--%--4p0-4-0----------------9~--||---------
D-------------------------------------||---------
A------------------------------------*||---------
E-------------------------------------||---------
                         Em sw           Back to Grandma ... 

End Solo

Play Riff 3   "Hearing 'Their' stories..."
Play Riff 3a  "My mother ? ..."
Play Riff 2   "Oh, it is time for tea..."


Ending
e|----------------------|
B|----------------------|
G|--8------10-----10/12-|
D|----------------------|
A|--6-------8------8/10-|
E|----------------------|

-----------------------------------------------------------

4. MOTHER'S GETTING WEAKER

Tuning: Standard


Riff 1
Guitar 1
e|-------------------------------------|
B|-------------------------------------|
G|-------------------------------------|
D|-------------------------------------|
A|-----10-9-10-----12-9-12-----10-9-10-|
E|-000---------000---------000---------|
   ***         ***         ***        
e|----------------------------------|
B|----------------------------------|
G|----------------------------------|
D|-12-10-9--------------------------|
A|---------12-10-9----------9-10-12-|
E|-----------------12-11-12---------|

e|---------------------------------------------|
B|---------------------------------------------|
G|---------------------------------------------|
D|-------------------------12-10-9-------------|
A|-----10-9-10-----12-10-9---------12-10-9-----|
E|-000---------000-------------------------11~-|
   ***         *** 


Guitar 2 (Comes in the second time)
e|------------------------|
B|------------------------|
G|------------------------|
D|-9--12--11----9--12--14-|
A|-7--10---9----7--10--12-|
E|------------------------|


Riff 3 (Guitar 2 plays the notes in () )
e|------------------------------------------|
B|------------------------------------------|
G|--9-9------12--12-------------------------|
D|--9-9------10--10-----8--8-------8--8--8--|
A|--7-7-------7---7-----8--8-------8--8--8--| 
E|--0-0--000--------870-------000-----------|
         ***        ***       ***
e|--------------------(19-15---------------|
B|--------------------------17-------------|
G|--9-9------12--12-----------16-----------|
D|--9-9------10--10-----7-------17---------|
A|--7-7-------7---7-----5---------19-14~~)-|
E|--0-0--000--------870--------------------|
         ***        ***
e|------------------------------------------|
B|------------------------------------------|
G|--9-9------12--12-------------------------|
D|--9-9------10--10-----8--8-------8--8--8--|
A|--7-7-------7---7-----8--8-------8--8--8--| 
E|--0-0--000--------870-------000-----------|
         ***        ***       ***
e|-------------------------------|
B|-------------------------------|
G|--9-9------12--12--------------|
D|--9-9------10--10-----7---5--4-|
A|--7-7-------7---7-----5---3--2-|
E|--0-0--000--------870----------|
         ***        ***


Riff 4
e|----------------------------------------|
B|-----------10------6-----------10-----8-|
G|------------9------5------------9-----7-|
D|-----------10------7-----------10-----9-|
A|-000000000-----000---000000000----000---|
E|----------------------------------------|
   *********     ***   *********    *** 
                     "Tonight..."
e|----------------------------------|
B|-----------10------6--------------|
G|------------9------5--------------|
D|-----------10------7-----5------7-|
A|-000000000-----000---000-3--000-5-|
E|----------------------------------|
   *********     ***   ***    ***
                   "...the last night..."


Riff 5 (Notes are slightly palm muted)
Guitar 1
e|-------------------------------------------|
B|-------------------------------------------|
G|-------------------------------------------|
D|-----5-4-5-7-5-4---4--------5-4-5-7-5-4----|
A|-----------------7---6------------------7~-|
E|-000--------------------000----------------|
   *** * * * * * * * * *  *** * * * * * *
e|-------------------------------------------|
B|-------------------------------------------|
G|------------------------------------4~--5~-|
D|-----5-4-5-7-5-4---4----------4-5-7--------|
A|-----------------7---6--7-6-7--------------|
E|-000---------------------------------------|
   *** * * * * * * * * *  * * * * * *
e|------------------------------------------------------|
B|------------------------------------------------------|
G|------------------------------------------------------|
D|-----10-9-10-12-10-9----9---------10-9-10-12-10-9-----|
A|-000-----------------12---11--000-----------------12~-|
E|------------------------------------------------------|
   ***  * *  *  *  * *  * *  *  ***  * *  *  *  * * 
      "Yesterday mother complained..."
e|-------------------------------------|
B|-------------------------------------|
G|-------------------------------------|
D|-----10-9-10-12-10-9------5-----7----|
A|-000-----------------12\--3--0--5--5-|
E|-----------------------------------3-|
   ***  * *  *  *  * *     
      "Feeling dizzy..."

Guitar 2
e|-----------------------------------------------|
B|-----------------------------------------------|
G|-----------------------------------------------|
D|-----9-7-9-10-9-7----7--------9-7-9-10-9-7-----|
A|------------------10---9-------------------10~-|
E|-000----------------------000------------------|
   *** * * *  * * *  * * *  *** * * *  * * * 
e|------------------------------------------------|
B|------------------------------------------------|
G|-----------------------------------------7~--9~-|
D|-----9-7-9-10-9-7----7------------7-9-10--------|
A|------------------10---9--10-9-10---------------|
E|-000--------------------------------------------|
   *** * * *  * * *  * * *   * *  * * *  * 
e|-----------------------------------------------|
B|-----------------------------------------------|
G|-----9-7-9-10-9-7----7--------9-7-9-10-9-7-----|
D|------------------10---9-------------------10~-|
A|-000----------------------000------------------|
E|-----------------------------------------------|
   *** * * *  * * *  * * *  *** * * *  * * * 
e|-----------------------------------|
B|-----------------------------------|
G|-----9-7-9-10-9-7------------------|
D|------------------10\--5-----7-----|
A|-000-------------------3--0--5--5--|
E|--------------------------------3--|
   *** * * *  * * *


Riff 6
e|-------------------------------------|
B|-------------------------------------|
G|-------------------------------------|
D|-11-11------111111-11-11------111111-|
A|-11-11------111111-11-11------111111-|
E|--9--9--999--9-9-9--9--9--999--9-9-9-|
          ***               *** 
                       "Mother's getting..."
e|-------------------------------------|
B|-------------------------------------|  --> bass riff at bottom
G|-------------------------------------|      of this section
D|-14-14------141414-14-14------141414-|
A|-12-12------121212-12-12------121212-|
E|--9--9--999--9-9-9--9--9--999--9-9-9-|
          ***               *** 
   "...weaker..."
e|-------------------------------------|
B|-------------------------------------|
G|-------------------------------------|
D|-11-11------111111-11-11------111111-|
A|-11-11------111111-11-11------111111-|
E|--9--9--999--9-9-9--9--9--999--9-9-9-|
          ***               *** 
            "Looking paler..."
e|-------------------------------|
B|-------------------------------|
G|-------------------------------|
D|--9--9-------9-9-9-9-----------|
A|--9--9-------9-9-9-9------5--5-|
E|--7--7--777--7-7-7-7------3--2-|
          ***               
   "...day........"

Here's the bass fill in riff 6 arranged for guitar 
e|-----------------|
B|-----------------|
G|-976-----976-----|
D|-----976-----976-|
A|-----------------|
E|-----------------|
  

Play Riff 4   "As morning came..."
Play Riff 5   "...head..."
Play Riff 6   "Mother's getting..."


Riff 7                   x2                                 x2
e|------------------------|----------------------------------|
B|------------------------|----------------------------------|
G|------------------------|----------------------------------|
D|------10----9----10-9-7-|----------12------10------12-10-9-|
A|-8888----88---88--------|-10101010----1010----1010---------|
E|------------------------|----------------------------------|
   ****  * ** * **  * * *    * * * *  *  * *  *  * *  *  * * 
   "Then Missy..."            "...she led me..."
e|-----------------------------------|
B|-----------------------------------|
G|-----------------------------------|
D|----------15------14------15-14-12-|
A|-12121212----1212----1212----------|
E|-----------------------------------|
    * * * *  *  * *  *  * *  *  *  *
   "I didn't..."
e|-----------------------------------|
B|-----------------------------------|
G|-----------------------------------|
D|----------15------14------15-14-12-|
A|-13131313----1313----1313----------|
E|-----------------------------------|
    * * * *  *  * *  *  * *  *  *  *
e|-----------------------------------|
B|-----------------------------------|
G|-----------------------------------|
D|----------17------16------17-16-14-|
A|-14141414----1414----1414----------|
E|-----------------------------------|
    * * * *  *  * *  *  * *  *  *  *
  "Oh but I should have known..."
e|--------------------------------|
B|--------------------------------|
G|--------------------------------|
D|----------17------16------------|
A|-15151515----1515----1515-----2-|
E|--------------------------17\-0-|
    * * * *  *  * *  *  * *
   


Riff 8
e|-----------------------------------|
B|-----------------------------------|
G|-----------------------------------|
D|-----------------------------------|
A|-------4----------------4-------7--|
E|-0-2-2-2----------0-2-2-2-------5--|
   * * *            * * * 
         "Mother..."
e|-----------------------------------|
B|-----------------------------------|
G|-----------------------------------|
D|-----------------------------------|
A|-------4----------------4-------7--|
E|-0-2-2-2----------0-2-2-2-------5--|
   * * * *          * * * *
         "...just..."


RIFF 9 (Solo Rhythm)      
e|---------------------------------------------------|
B|---------------------------------------------------|
G|---------------------------------------------------|
D|---9---9---9---9---9---9\---3---3---3---3---3---3/-|
A|-7---7---7---7---7---7----1---1---1---1---1---1----|
E|---------------------------------------------------|
   * * * * * * * * * * * *  * * * * * * * * * * * *
e|---------------------------------------------------|
B|---------------------------------------------------|
G|---------------------------------------------------|
D|---9---9---9---9---9---9\---4---4---4--------------|
A|-7---7---7---7---7---7----2---2---2-----3---3---3/-|
E|--------------------------------------1---1---1----|
   * * * * * * * * * * * *  * * * * * * * * * * * *
e|----------------------------------------------|
B|----------------------------------------------|
G|----------------------------------------------|
D|---9---9---9---9---9---9\---3---3---3-3--3--3-|
A|-7---7---7---7---7---7----1---1---1---1--1--1-|
E|----------------------------------------------|
   * * * * * * * * * * * *  * * * * * *
e|---------------------------------------------------|
B|---------------------------------------------------|
G|---------------------------------------------------|
D|---9---9---9---9---9---9\---4---4---4--------------|
A|-7---7---7---7---7---7----2---2---2-----3---3---3/-|
E|--------------------------------------1---1---1----|
   * * * * * * * * * * * *  * * * * * * * * * * * *
e|---------------------------------------------------|
B|---------------------------------------------------|
G|---------------------------------------------------|
D|---9---9---9---9---9---9\---3---3---3---3---3---3/-|
A|-7---7---7---7---7---7----1---1---1---1---1---1----|
E|---------------------------------------------------|
   * * * * * * * * * * * *  * * * * * * * * * * * *
e|---------------------------------------------------|
B|---------------------------------------------------|
G|---------------------------------------------------|
D|---9---9---9---9---9---9\---4---4---4--------------|
A|-7---7---7---7---7---7----2---2---2-----3---3---3/-|
E|--------------------------------------1---1---1----|
   * * * * * * * * * * * *  * * * * * * * * * * * *
e|---------------------------------------------------|
B|---------------------------------------------------|
G|---------------------------------------------------|
D|---9---9---9---9---9---9\---3---3---3---3---3---3/-|
A|-7---7---7---7---7---7----1---1---1---1---1---1----|
E|---------------------------------------------------|
   * * * * * * * * * * * *  * * * * * * * * * * * *
e|----------------------------------------|
B|----------------------------------------|
G|----------------------------------------|
D|---9---9---9---9---9---9\---4---4---4-4-|
A|-7---7---7---7---7---7----2---2---2---2-|
E|----------------------------------------|
   * * * * * * * * * * * *  * * * * * * 


Riff 10 (Solo Rhythm)
e|--------------------------------------------------|
B|-----------------------------------------------3--|
G|-----------------------------------------------0--|
D|--5----7--9--9---10-9--------------------7--5--0--|
A|--3----5--6--7----7-7----3----5--7--7----5--3--x--|
E|-------------------------1----3--4--5----------3--|


Play Riff 4   "I think I heard..."
Play Riff 5   "...help..."

Riff 6a
e|-------------------------------------|
B|-------------------------------------|
G|-------------------------------------|
D|-11-11------111111-11-11------111111-|
A|-11-11------111111-11-11------111111-|
E|--9--9--999--9-9-9--9--9--999--9-9-9-|
          ***               *** 
                       "Mother's getting..."
e|-------------------------------------|
B|-------------------------------------|
G|-------------------------------------|
D|-14-14------141414-14-14------141414-|
A|-12-12------121212-12-12------121212-|
E|--9--9--999--9-9-9--9--9--999--9-9-9-|
          ***               *** 
   "...weaker..."
e|-------------------------------------|
B|-------------------------------------|
G|-------------------------------------|
D|-11-11------111111-11-11------111111-|
A|-11-11------111111-11-11------111111-|
E|--9--9--999--9-9-9--9--9--999--9-9-9-|
          ***               *** 
            "Looking paler..."

1st ending
e|---------------------------------|
B|---------------------------------|
G|---------------------------------|
D|--9--9-------9-9-9-9-------9---9-|
A|--9--9-------9-9-9-9-------7-9-7-|
E|--7--7--777--7-7-7-7---777---7---|
          ***            *** * * *    
   "...day........"

2nd ending
e|---------------------------|
B|---------------------------|
G|---------------------------|
D|--9------------------------|
A|--9------------------5--5--|
E|--7------------------3--2--|
   "...day...    ...I hate you!"

--------------------------------------------------------

5. BYE, BYE MISSY
Tuning: Standard


Riff 1
e|-----------------------------|
B|-----------------------------|
G|-----------------------------|
D|-2----3--------2----3--2/3---|
A|-2----3--------2----3--2/3---|
E|----0----0-0-0----0--------0-|
      *    * * *    *        *


Riff 2
e|-----------------------------|
B|-----------------------------|
G|-4----5--------4----5--4/5---|
D|-----------------------------|
A|-2----3--------2----3--2/3---|
E|----0----0-0-0----0--------0-|
      *    * * *    *        *
  "Tea time, Monday night..."


Riff 3
e|-----------------------------|
B|-----------------------------|
G|-7----8--------7----8--7/8---|
D|-----------------------------|
A|-5----6--------5----6--5/6---|
E|----7----7-7-7----7--------7-|
      *    * * *    *        *
  "...hallway, I saw Mother..."


Riff 4
e|-----------------|
B|-----------------|
G|-----------------|
D|-7----5----7--5--|
A|-5----3----5--3--|
E|-5----3----5--3--|
   "...stairs..."


Play Riff 2  "...the stairs..."


Riff 5
e|--------------------|
B|--------------------|
G|--------------------|
D|-7---10----9-10--9--|
A|-5----8----7--8--7--|
E|-5----8----7--8--7--|
    "I knew Grandma had sent..."
  

Lead into next section:
e|-----------------------------------|
B|-----------------------------------|
G|-----------------------------------|
D|-4---4---4---4---4---4---4-----4-5-|
A|---2---2---2---2---2---2---2-0-2-3-|
E|-----------------------------------|
   * * * * * * * * * * * * * * *
   "...again..."


Riff 6                                    
e|-----------------------------------------|
B|-----------------------------------------|
G|-----------------------------------------|
D|-------4---4---4---4---4---4---4-----4-5-|
A|-0-2-3---2---2---2---2---2---2---2-0-2-3-|
E|-----------------------------------------|
   * * * * * * * * * * * * * * * * * * 
   "The invisible friends..."


Riff 7                                    x2
e|-----------------------------------------|
B|-----------------------------------------|
G|-----------------------------------------|
D|-----------------------------------------|
A|-------4---4---4---4---4---4---4-----4-5-|
E|-0-2-3---2---2---2---2---2---2---2-0-2-3-|
   * * * * * * * * * * * * * * * * * * 
   "A little later in the midddle of tea..."


Play Riff 6   " 'They' were telling..."


Riff 8
e|-----------------------------------------|
B|-----------------------------------------|
G|------------0-------0------------0-------|
D|----------4---4---2------------4---4---5-|
A|-0-2-3-/5-------3-----0-2-3-/5-------0-3-|
E|-----------------------------------------|
   "She opened the door..."
e|-----------------------------------------|
B|-----------------------------------------|
G|------------0-------0------------0-------|
D|----------4---4---2------------4---4--10-|
A|-0-2-3-/5-------3-----0-2-3-/5---------8-|
E|---------------------------------------8-|
   "Seeing Mother in Grandmother's chair..."


Play Riff 6   "Missy was screaming..."
Play Riff 7   "What have you done..."
Play Riff 6   "We better get rid..."

Riff 8a
e|-------------------------------------------|
B|-------------------------------------------|
G|------------0-------0------------0---------|
D|----------4---4---2------------4---4-----2-|
A|-0-2-3-/5-------3-----0-2-3-/5-------0-3---|
E|-------------------------------------------|
   "Bye, bye, Missy..."
e|-----------------------------------------|
B|-----------------------------------------|
G|------------0-------0------------0-------|
D|----------4---4---2------------4---4--10-|
A|-0-2-3-/5-------3-----0-2-3-/5---------8-|
E|-----------------------------------------|



Riff 9 (Solo Rhythm)
e|------------------------------------|
B|------------------------------------|
G|------------------------------------|
D|-6---------------6-------------8-6--|
A|-4---------------4-------------6-4--|
E|----6-6-6-6-6666----6-6-6-6-66------|
      * * * * ****    * * * * **
e|------------------------------|
B|------------------------------|
G|------------------------------|
D|------------------------------|
A|--------------------7---6p4-6-|
E|-6-6-6-6-6666-4~--4---4-------|
   * * * * ****     *   *
e|------------------------------------|
B|------------------------------------|
G|------------------------------------|
D|-6---------------6-------------8-6--|
A|-4---------------4-------------6-4--|
E|----6-6-6-6-6666----6-6-6-6-66------|
      * * * * ****    * * * * **
e|----------------------------------------------|
B|----------------------------------------------|
G|----------------------------------------------|
D|----------------------------------------------|
A|--------------------7---6p4-6-------7---6p4---|
E|-6-6-6-6-6666-4~--4---4-------4~--4---4-----7-|
   * * * * ****     *   *           *   *     *
e|----------------------------------|
B|----------------------------------|
G|----------------------------------|
D|--------------------------------6-|
A|-------7---6p4-6--------7\--6-7-4-|
E|-4~--4---4--------4~--4-----4-5---|
       *   *            *     * * *

Riff 10 (Solo Rhythm)
e|------------------------------------|
B|------------------------------------|
G|------------------------------------|
D|-7---------------7-------------9-7--|
A|-5---------------5-------------7-5--|
E|----7-7-7-7-7777----7-7-7-7-77------|
      * * * * ****    * * * * **
e|------------------------------|
B|------------------------------|
G|------------------------------|
D|------------------------------|
A|--------------------8---7p5-7-|
E|-7-7-7-7-7777-5~--5---5-------|
   * * * * ****     *   *
e|------------------------------------|
B|------------------------------------|
G|------------------------------------|
D|-7---------------7-------------9-7--|
A|-5---------------5-------------7-5--|
E|----7-7-7-7-7777----7-7-7-7-77------|
      * * * * ****    * * * * **
e|----------------------------------------------|
B|----------------------------------------------|
G|----------------------------------------------|
D|----------------------------------------------|
A|--------------------8---7p5-7-------8---7p5---|
E|-7-7-7-7-7777-5~--5---5-------5~--5---5-----8-|
   * * * * ****     *   *           *   *     *
e|---------------------------------|
B|---------------------------------|
G|---------------------------------|
D|-----------------------10--10-9--|
A|-------8---7p5-7--------8---8-7--|
e|-5~--5---5-------5~--0-----------|
       *   *           *
e|---------------|
B|---------------|
G|---------------|
D|-7777-10101010-|
A|-5555--8-8-8-8-|
E|---------------|


Riff 11
e|-----------------------------------|
B|-----------------------------------|
G|-----------------------------------|
D|------------8------------------8-7-|
A|---9---10-----9-10----9---10---8-7-|
E|-0---0----0---------0---0----0-----|

e|--------------------------------------|
B|--------------------------------------|
G|--------------------------------------|
D|------------8----------------12-11-10-|
A|---9---10-----9-10----9---10-12-11-10-|
E|-0---0----0---------0---0-------------|

e|-----------------------------------|
B|-----------------------------------|
G|-----------------------------------|
D|------------8------------------8-7-|
A|---9---10-----9-10----9---10---8-7-|
E|-0---0----0---------0---0----0-----|

e|-----------------------------------------------------|
B|-----------------------------------------------------|
G|-----------------------------------------------------|
D|------------8----------------12-11-10--7777-10101010-|
A|---9---10-----9-10----9---10-12-11-10--5555--8-8-8-8-|
E|-0---0----0---------0---0----------------------------|



Riff 12
e|------------------------------------|
B|------------------------------------|
G|------------------------------------|
D|---------------------------12/14\12-|
A|---9-------10-------12-----10/12\10-|
E|-0---0-0-0----0-0-0----0-0----------|
   *   * * *    * * *    * * 
  "Oh no, let me be..."
e|-----------------------------------------|
B|-----------------------------------------|
G|-----------------------------------------|
D|---------------------------7777-10101010-|
A|---9-------10-------12-----5555--8-8-8-8-|
E|-0---0-0-0----0-0-0----0-0---------------|
   *   * * *    * * *    * * 
  "...no please..."
e|------------------------------------|
B|------------------------------------|
G|------------------------------------|
D|---------------------------12/14\12-|
A|---9-------10-------12-----10/12\10-|
E|-0---0-0-0----0-0-0----0-0----------|
   *   * * *    * * *    * * 
e|--------------------------------------|
B|--------------------------------------|
G|--------------------------------------|
D|---------------------------777-101010-|
A|---9-------10-------12-----555--8-8-8-|
E|-0---0-0-0----0-0-0----0-0------------|
   *   * * *    * * *    * * 


Riff 13
e|------------------------|
B|------------------------|
G|------------------------|
D|---4-----0------4----2--|
A|---------0-----------0--|
E|-2----2-----222----2----|
        *     ***    *
        "Don't touch me..."
e|----------------------------------------|
B|----------------------------------------|
G|----------------------------------------|
D|---4-----0------4--7-6-5--7777-10101010-|
A|---------0---------5-4-3--5555--8-8-8-8-|
E|-2----2-----222----5-4-3----------------|
        *     ***    * *
       "...I'll break it..."


Play Riff 11   "I saw liquid..."
Play Riff 12   " 'Die, she broke Amon'..."
Use this as last bar in Riff 12:
e|----------------------------------------------|
B|----------------------------------------------|
G|----------------------------------------------|
D|---------------------------777-101010-555-888-|
A|---9-------10-------12-----555--8-8-8-333-666-|
E|-0---0-0-0----0-0-0----0-0--------------------|
   *   * * *    * * *    * * 


Riff 14
e|-----------------------------------------------|
B|-----------------------------------------------|
G|-----------------------------------------------|
D|------2---------3-------4--------5----4--5--4\-|
A|-----------------------------------------3--2\-|
E|-0---------1---------2-----0-2-3----2----------|
                             * * *   


Riff 15 (Solo Rhythm)
e|-------------------------------------------------|
B|-------------------------------------------------|
G|-------------------------------------------------|
D|-------6---6-------7---7-------6---6-------4-----|
A|-------------------------------------4-6-7---7-6-|
E|-4-4-4---4---4-4-4---4---4-4-4---4---------------|
   * * *   *   * * *   *   * * *   *   
e|-------------------------------------------|
B|-------------------------------------------|
G|-------------------------------------------|
D|-------6---6-------7---7-------6---6-6--4--|
A|-------------------------------------4--2--|
E|-4-4-4---4---4-4-4---4---4-4-4---4---------|
   * * *   *   * * *   *   * * *   * 

Riff 16 (Solo Rhythm)
e|-------------------------------------------------|
B|-------------------------------------------------|
G|-------------------------------------------------|
D|-------8---8-------9---9-------8---8-------6-----|
A|-------------------------------------6-8-9---9-8-|
E|-6-6-6---6---6-6-6---6---6-6-6---6---------------|
   * * *   *   * * *   *   * * *   *       
e|-------------------------------------------|
B|-------------------------------------------|
G|-------------------------------------------|
D|-------8---8-------9---9-------8---8-8--6--|
A|-------------------------------------6--4--|
E|-6-6-6---6---6-6-6---6---6-6-6---6---------|
   * * *   *   * * *   *   * * *   * 


Lead into next section:
e|------------------------|
B|------------------------|
G|------------------------|
D|------------------------|
A|-4--4--4--4--4----4--2--|
E|-2--2--2--2--2--0-2--3--|
   *  *  *  *  *  * *  
  " 'They' dropped "Their' tea cups..."

Riff 17
e|-----------------------------|
B|-----------------------------|
G|-----------------------------|
D|-----------------------------|
A|-------4--4--4--4--4----4--2-|
E|-0-2-3-2--2--2--2--2--0-2--3-|
   * * * *  *  *  *  *  * * 
  "...Grandma stood still..."

Riff 18
e|-----------------------------|
B|-----------------------------|
G|-----------------------------|
D|-------4--4--4--4--4----4--2-|
A|-0-2-3-2--2--2--2--2--0-2--3-|
E|-----------------------------|
   * * * *  *  *  *  *  * * 
   "Forced by invisible hands..."


Play Riff 17  "As I waved her goodbye..."
Play Riff 8   "Will I ever..."

Riff 17a
e|-----------------------------|
B|-----------------------------|
G|-----------------------------|
D|-----------------------------|
A|-------4--4--4--4--4----4--5-|
E|-0-2-3-2--2--2--2--2--0-2--3-|
   * * * *  *  *  *  *  * * 
e|--------------------------------|
B|--------------------------------|
G|--------------------------------|
D|--------------------------------|
A|-------4-4-4-4--4--4--4----4--5-|
E|-0-2-3-2-2-2-2--2--2--2--0-2--3-|
   * * * * * * *  *  *  *  * * 

Riff 18a
e|-----------------------------|
B|-----------------------------|
G|-----------------------------|
D|-------4--4--4--4--4----4--5-|
A|-0-2-3-2--2--2--2--2--0-2--3-|
E|-----------------------------|
   * * * *  *  *  *  *  * * 
e|--------------------------------|
B|--------------------------------|
G|--------------------------------|
D|-------4-4-4-4--4--4--4----4--5-|
A|-0-2-3-2-2-2-2--2--2--2--0-2--3-|
E|--------------------------------|
   * * * * * * *  *  *  *  * * 


Alternate between Riffs 17a and 18a til ending.

-------------------------------------------------------------

6. A BROKEN SPELL

Tuning: Standard


Riff 1 (Guitar 2 plays top notes)
e|----------------------------------|
B|----------------------------------|
G|----------------------------------|
D|---------9--------10--(10)b12r10~-|
A|--------10--------12--(12)b14r12~-|
E|--0-0-0-----0-0-0-----------------|
    * * *     * * *
e|--------------------------------|
B|--------------------------------|
G|--------------------------------|
D|--------9----------7--(7)b-9r7~-|
A|-------10----------9--(9)b10r9~-|
E|-0-0-0-------0-0-0--------------|
   * * *      * * *


Riff 2 (Guitar 2 plays top notes)
e|--------------------------------------------------|
B|--------------------------------------------------|
G|-------4---4-------5---5-------7---7--------9---9-|
D|-------5---5-------7---7-------9---9-------10--10-|
A|--------------------------------------------------|
E|-0-0-0---0---0-0-0---0---0-0-0---0---0-0-0---0----|
   * * *   *   * * *   *   * * *   *   * * *   *   
   "I stumbled..."
e|---------------------------------------------------------|
B|---------------------------------------------------------|
G|-------4---4-------5---5-------7---7--------9-7-5--------|
D|-------5---5-------7---7-------9---9-------10-9-7--9-8~~-|
A|--------------------------------------------------10-9~~-|
E|-0-0-0---0---0-0-0---0---0-0-0---0---0-0-0---------------|
   * * *   *   * * *   *   * * *   *   * * *
  "Once outside..."


Riff 3 (Solo Rhythm)
e|-------------------------------------------------------|
B|-------------------------------------------------------|
G|-------------------------------------------------------|
D|-------------------------------------------------------|
A|-------------------------5---4-------------------5---4-|
E|-0-2-2-2-2-2-2-2-2-2-2-2---2---2-2-2-2-2-2-2-2-2---2---|
   * * * * * * * * * * * * * * * * * * * * * * * * * * *
e|-------------------------------------------------|
B|-------------------------------------------------|
G|-------------------------------------------------|
D|-------------------------------------------------|
A|-------5---4-------3---2-------------------3---2-|
E|-2-2-2---2---2-2-2---0---0-0-0-0-0-0-0-0-0---0---|
   * * * * * * * * * * * * * * * * * * * * * * * *
e|-------------------------------------------------|
B|-------------------------------------------------|
G|-------------------------------------------------|
D|-------------------------------------------------|
A|-------3---2-------5---4-------------------5--7--|
E|-0-0-0---0---0-0-2---2---2-2-2-2-2-2-2-2-2-3--4--|
   * * * * * * * * * * * * * * * * * * * * *


Riff 4
e|------------------------------------------------------|
B|------------------------------------------------------|
G|------------------------------------------------------|
D|------------------12----------------------------------|
A|-7/9-9-9----------10----7/9-9-9----7-7-7-7--7-7-7-7-7-|
E|-5/7-7-7----7-7-7-------5/7-7-7----5-5-5-5--5-5-5-5-5-|
       *      * * *           *      * * *    * * * 
       "With the teapot..."


Riff 5
Guitar 1
e|---------------------------------------|
B|---------------------------------------|
G|---------------------------------------|
D|------------9------------------7-------|
A|------------7------------------5-------|
E|-0-0--0--0----------0-0--0--0----------|        
   * *  *  *          * *  *  *
                 "I fell to my knees..."
e|---------------------------|
B|---------------------------|
G|---------------------------|
D|------------5---------4--9-|
A|------------3---------2--6-|
E|-0-0--0--0-----------------| 
   * *  *  * 
    "...in haziness..."

Guitar 2
e|---------------------------------------|
B|---------------------------------------|
G|-----------12-/14\------------12--11\--|
D|---------------------------------------|
A|-----------10-/12\------------10---9\--|
E|-0-0--0--0----------0-0--0--0----------|        
   * *  *  *          * *  *  *
e|--------------------------|
B|--------------------------|
G|-----------12--\9---------|
D|---------------------4--9-|
A|-----------10--\7----2--6-|
E|-0-0--0--0----------------|        
   * *  *  *   
  


Riff 6
e|------------------------|
B|------------------------|
G|------------------------|
D|--------2---------------|
A|--2-3-5---5-3-2---------|
E|----------------5-3-2~~-|
   

Play Riff 4   "Things were..."
Play Riff 5   "Flying out..."
Play Riff 6   "...passed out..."
Play Riff 3   Solo Rhythm

Riff 7
e|-------------------------------------------------------|
B|-------------------------------------------------------|
G|-------------------------------------------------------|
D|-------------------------7---6-------7---6-------6---5-|
A|-2/4-4-4-4-4-4-4-4-4-4-4---4---4-4-4---4---4-4-4---3---|
E|-------------------------------------------------------|
   * * * * * * * * * * * * * * * * * * * * * * * * * * *

e|------------------------------------------------|
B|------------------------------------------------|
G|------------------------------------------------|
D|-----------------6---5-------6---5-------7---6--|
A|-3-3-3-3-3-3-3-3---3---3-3-3---3---3-3-4---4----|
E|------------------------------------------------|
   * * * * * * * * * * * * * * * * * * * * * * *
e|--------------------------|
B|--------------------------|
G|--------------------------|
D|-------------------7---4--|
A|-4-4-4-4-4-4-4-4-4-5---2--|
E|--------------------------|
   * * * * * * * * * 


Riff 3a (Solo Rhythm)
e|---------------------------------|
B|---------------------------------|
G|---------------------------------|
D|---------------------------------|
A|---5---4-------------------5---4-|
E|-2---2---2-2-2-2-2-2-2-2-2---2---|
   * * * * * * * * * * * * * * * *
e|-------------------------------------------------|
B|-------------------------------------------------|
G|-------------------------------------------------|
D|-------------------------------------------------|
A|-------5---4-------3---2-------------------3---2-|
E|-2-2-2---2---2-2-2---0---0-0-0-0-0-0-0-0-0---0---|
   * * * * * * * * * * * * * * * * * * * * * * * *
e|-------------------------------------------|
B|-------------------------------------------|
G|-------------------------------------------|
D|-------------------------------------------|
A|-------3---2-------5---4-------------------|
E|-0-0-0---0---0-0-2---2---2-2-2-2-2-2-2-2-2-|
   * * * * * * * * * * * * * * * * * * * * *
e|---------------------------|
B|---------------------------|
G|---------------------------|
D|---------------------------|
A|--5----7----7----9----9----|
E|--3----4----5----6----7----|



Riff 8 (Acoustic, Play 2x)
e|--------------------------------|
B|--------------------------------|
G|--------------------------------|
D|---5-----4-----2-----4-----5----|
A|-----2-----2-----2-----2-----2--|
E|-0-----0-----0-----0-----0------|

e|--------------------------------|
B|--------------------------------|
G|----------------------0---------|
D|----5-----4---------4-----4-----|
A|------3-----3-----5---------5---|
E|--0-----0-----0-0-------0-----0-|


Riff 8a
e|--------------------------------|
B|--------------------------------|
G|--------------------------------|
D|---9-----7------------7-----9---|
A|-----7-----7---10-7-----7-----7-|
E|-0-----0-----0------0-----0-----|
  "The next thing..."
e|----------------------------------|
B|----------------------------------|
G|----------------------------------|
D|---9-----7-----------7-10--9-7----|
A|-----7-----7-------9-----------10-|
E|-8-----8-----8-10-----------------|
   "...remember seeing..."
e|--------------------------------|
B|--------------------------------|
G|--------------------------------|
D|---9-----7------------7-----9---|
A|-----7-----7---10-7-----7-----7-|
E|-0-----0-----0------0-----0-----|
   "...was the smoke coming..."
e|---------------------------------|
B|---------------------------------|
G|-----------------------7---------|
D|---9-----7-----------7----10-9-7-|
A|-----7-----7-------9-------------|
E|-8-----8-----8-10----------------|
   "...from the chimney..."


Riff 9 (DIstortion)
e|-----------------------------|
B|-----------------------------|
G|-4---4---4--------5---7---5--|
D|-4---4---4--------5---5---5--|
A|-2-2-2-2-2----2-2-3-3-3-3-3--|
E|-----------------------------|
     *   *      * *   *   *
    "I soon realized..."
e|----------------------------------|
B|----------------------------------|
G|-----7---9---7--------------------|
D|-----7---7---7--------------------|
A|-3-3-5-5-5-5-5----3-2-0---5-3-2-0-|
E|------------------------3---------|
   * *   *   *      * * * * * * * *  
e|-----------------------------|
B|-----------------------------|
G|-4---4---4--------5---7---5--|
D|-4---4---4--------5---5---5--|
A|-2-2-2-2-2--------3-3-3-3-3--|
E|-----------------------------|
     *   *            *   *
  "...no!  All there was left..."
e|-----------------------------------|
B|-----------------------------------|
G|-----7---9---7--------12---11----9-|
D|-----7---7---7--------10----9---10-|
A|-3-3-5-5-5-5-5---------7----7----7-|
E|------------------0-0----0----0----|
   * *   *   *      * *    *    *


Riff 10
e|-------------------------------------|
B|-------------------------------------|
G|----------------------------------2--|
D|-------4~--3---2----------4~--3------|
A|-----4-------4---3------4-------4----|
E|-0-2----------------0-2--------------|

e|--------------------------------------|
B|--------------------------------------|
G|--------------------------------------|
D|-------4~--3---2----------4~--7-7-7---|
A|-----4-------4---3------4-----------7-|
E|-0-2----------------0-2-------------7-|


Riff 11 (Solo Rhythm)
e|----------------------------------|
B|----------------------------------|
G|----------------------------------|
D|---------7----6-9----9-11----11---|
A|--4----2-5----4-7----7--9-----9---|
E|--2----0------------------------0-|

Final time:
e|-----------------------------------|
B|-----------------------------------|
G|-----------------------------------|
D|---------7----6-9----9-11----11--9-|
A|--4----2-5----4-7----7--9-----9--7-|
E|--2----0---------------------------|


Play Riff 4   "The spell was..."
Play Riff 5   "The moon was alive..."

Riff 6a
e|---------------------|
B|---------------------|
G|---------------------|
D|--------2------------|
A|--2-3-5---5-3-2------|
E|----------------5-3--|
   "...I went..."


Riff 3a
e|-------------------------------------------------------|
B|-------------------------------------------------------|
G|-------------------------------------------------------|
D|-------------------------------------------------------|
A|-5---4-------------------5---4-------5---4-------3---2-|
E|---2---2-2-2-2-2-2-2-2-2---2---2-2-2---2---2-2-2---0---|
   * * * * * * * * * * * * * * * * * * * * * * * * * * *
   "...back, to see..."
e|-------------------------------------------------|
B|-------------------------------------------------|
G|-------------------------------------------------|
D|-------------------------------------------------|
A|-------------------3---2-------3---2-------5---4-|
E|-0-0-0-0-0-0-0-0-0---0---0-0-0---0---0-0-2---2---|
   * * * * * * * * * * * * * * * * * * * * * * * *
   "...waiting for me in the..."  
e|-------------------|
B|-------------------|
G|-------------------|
D|-------------------|
A|-------------------|
E|-2-2-2-2-2-2-2-2-2-|
   * * * * * * * * *
   "...attic..."
e|---------------------------|
B|---------------------------|
G|---------------------------|
D|---------------------------|
A|--5----7----7----9----9----|
E|--3----4----5----6----7----|
   "Oh I hate..."


Ending (Clean, fade out)
e|-2-------2---------|
B|---2-------2-------|
G|-----4-------4-----|
D|-------4------(4)--|
A|-------------------|
E|-------------------|

------------------------------------------------------

7. THE ACCUSATION CHAIR
Tuning: Standard

Riff 1
Guitar 1
e|---------------------------------------|
B|---------------------------------------|
G|---------------------------------------|
D|----5-4---------5-4--5-4------5-4------|
A|--------6----------------6--------6\---|
E|-0---------0-0-------------0---------0-|
             * * 

Guitar 2
e|---------------------------------------|
B|---------------------------------------|
G|---------------------------------------|
D|---------------------------------------|
A|----7-6---------7-6--7-6------7-6------|
E|-0------8--0-0-----------8-0------8\-0-|
             * * 

Riff 1a
Guitar 1
e|---------------------------------------|
B|---------------------------------------|
G|---------------------------------------|
D|----5-4---------5-4--5-4------5-4------|
A|--------6----------------6--------6\---|
E|-0---------0-0-------------0---------0-|
             * * 
Guitar 2
e|------------------------------------------|
B|------------------------------------------|
G|------------------------------------------|
D|----9-8---------9-8---9-8--------9-8------|
A|-------10-----------------10--------10\---|
E|-0---------0-0---------------0----------0-|
             * * 


Riff 2
Guitar 1
e|---------------------------------------------------------|
B|---------------------------------------------------------|
G|---------------------------------------------------------|
D|---------------------------------------------------------|
A|-------6-7-6---6-7-6---6-7-6-----------6-7-6---6-7-6---6-|
E|-0-5-7-------8-------8-------8-7-5-7-8-------8-------8---|
   * * *       *       *       * * * * *       *       *
e|-------------------------------------------------------|
B|-------------------------------------------------------|
G|-------------------------------------------------------|
D|-------------------------------------------------------|
A|-------6-7-6---6-7-6---6-7-6-----------6-7-6---6-7-6---|
E|-0-5-7-------8-------8-------8-7-5-7-8-------8-------0-|
   * * * * * * * * * * * * * * * * * * * * * * * * * * * 

Guitar 2
e|----------------------------------------------------------|
B|----------------------------------------------------------|
G|----------------------------------------------------------|
D|-------8-9-8---8-9-8---8-9-8------------8-9-8---8-9-8---8-|
A|------------10------10------10-9-7-9-10------10------10---|
E|-0-5-7----------------------------------------------------|
   * * *       *       *       * * * *  *       *       *
e|--------------------------------------------------------|
B|--------------------------------------------------------|
G|--------------------------------------------------------|
D|-------8-9-8---8-9-8---8-9-8------------8-9-8---8-9-8---|
A|------------10------10------10-9-7-9-10------10---------|
E|-0-5-7------------------------------------------------0-|
   * * * * * * * * * * * * * * * * * *  * * * * * * * * * 


Riff 3
e|--------------------------------------------------------|
B|--------------------------------------------------------|
G|--------------------------------------------------------|
D|-10-----9--10-9-7-10-----9--10-9---8----7-7-7-7-7-7-7-7-|
A|--8-----7---8-7-5--8-----7---8-7---6----5-5-5-5-5-5-5-5-|
E|----0-0--------------0-0---------0----------------------|
      * *              * *         *      * * * * * * * *
   "I kind of knew..." 
e|---------------------------------------------------|
B|---------------------------------------------------|
G|----------------------------------------5---8---7--|
D|-10-----9--10-9-7-10-----9--10-9---8---------------|
A|--8-----7---8-7-5--8-----7---8-7---6----3---6---5--|
E|----0-0--------------0-0---------0-----------------|
      * *              * *         *
   "...sick smile, she told..."
e|--------------------------------------------------------|
B|--------------------------------------------------------|
G|--------------------------------------------------------|
D|-10-----9--10-9-7-10-----9--10-9---8----7-7-7-7-7-7-7-7-|
A|--8-----7---8-7-5--8-----7---8-7---6----5-5-5-5-5-5-5-5-|
E|----0-0--------------0-0---------0----------------------|
      * *              * *         *      * * * * * * * *
   "Her eyes went hard..."
e|-----------------------------------|
B|-----------------------------------|
G|-----------------------------------|
D|-10-----9--10-9-7-10-----9--10-9---|
A|--8-----7---8-7-5--8-----7---8-7---|
E|----0-0--------------0-0---------0-|
      * *              * *         *
   "...convinced her, that I was..."
                         

Riff 4
Guitar 1
e|-------------------------------------------|
B|-------------------------------------------|
G|-------------------------------------------|
D|-8-----------------7-----------------------|
A|-6---------3-------5--------5-6--5----8--7-|
E|-----3-5-6----6-5-------6-8--------8--6--5-|
       * * *              * * * 
  "...fine..."
e|---------------------------------------|
B|---------------------------------------|
G|---------------------------------------|
D|---------------7-----------------------|
A|-------3-------5--------5-6--5----8--7-|
E|-3-5-6----6-5-------6-8--------8--6--5-|
   * * *              * * *  
   "...seeing the look in her eyes..."

Guitar 2
e|--------------------------------------------|
B|--------------------------------------------|
G|---------------------------------------7-5~-|
D|-8-----------------------------5------------|
A|-6-------5-6--5----8~----5-6-8----8-6-------|
E|-----6-8--------8---------------------------|
       * * *               * * *  
  "...fine..."
e|----------------------------------------|
B|----------------------------------------|
G|-----------------------------------7-5~-|
D|---------------------------5------------|
A|-----5-6--5----8~----5-6-8----8-6-------|
E|-6-8--------8---------------------------|
   * * *               * * *


Riff 3a
e|--------------------------------------------------------|
B|--------------------------------------------------------|
G|--------------------------------------------------------|
D|-10-----9--10-9-7-10-----9--10-9---8----7-7-7-7-7-7-7-7-|
A|--8-----7---8-7-5--8-----7---8-7---6----5-5-5-5-5-5-5-5-|
E|----0-0--------------0-0---------0----------------------|
      * *              * *         *      * * * * * * * * 
   "She believed everything..."
e|-----------------------------------|
B|-----------------------------------|
G|-----------------------------------|
D|-10-----9--10-9-7-10-----9--10-9---|
A|--8-----7---8-7-5--8-----7---8-7---|
E|----0-0--------------0-0---------0-|
      * *              * *         *
   "...and then she asked me..."


Play Riff 4   "...outside..."

Riff 2a
Guitar 1
e|-------------------------------------------------------|
B|-------------------------------------------------------|
G|-------------------------------------------------------|
D|-------------------------------------------------------|
A|-------6-7-6---6-7-6---6-7-6-----------6-7-6---6-7-6---|
E|-0-5-7-------8-------8-------8-7-5-7-8-------8-------8-|
   * * * * * * * * * * * * * * * * * * * * * * * * * * * 

Guitar 2
e|--------------------------------------------------------|
B|--------------------------------------------------------|
G|--------------------------------------------------------|
D|-------8-9-8---8-9-8---8-9-8------------8-9-8---8-9-8---|
A|------------10------10------10-9-7-9-10------10------10-|
E|-0-5-7--------------------------------------------------|
   * * *       *       *       * * * *  *       *       *


Play Riff 3   "There she was..."
Play Riff 4   "...escape..."


Riff 5
Guitar 1      x4
e|-------------|----------|
B|-------------|----------|
G|-------------|----------|
D|-------------|----------|
A|-7-----6-----|-7----6-6-|
E|-5-----4-----|-5----4-4-|

Guitar 2
e|-------------------------|
B|----11-10----10-11-10----|
G|-10-------11----------11-|
D|-------------------------|
A|-------------------------|
E|-------------------------|


Riff 6
e|--------------------------------------------------|
B|--------------------------------------------------|
G|-----------------------------------------------0--|
D|---------------------------------------------2----|
A|-----------------------------------------2-3------|
E|-0-0-0-0-0--0-0-0-0-0-0-0--0-0-0-0-0-0-0----------|
   * * * * *  * * * * * * *  * * * * * * *
e|-------------------------------------------------|
B|-------------------------------------------------|
G|-------------------------------------------------|
D|-----------------------------------------2-3-2-3-|
A|-----------------------------------------2-3-2-3-|
E|-0-0-0-0-0--0-0-0-0-0-0-0--0-0-0-0-0-0-0---------|
   * * * * *  * * * * * * *  * * * * * * * * * * 


Riff 7 (Solo Rhythm)                x2
e|-----------------------------------|
B|-----------------------------------|
G|-----------------------------------|
D|-----------------------------------|
A|----------3---2--------------3---2-|
E|-2222-2-2---2----5--2222-2-2---2---|
   **** * *   *       **** * *   *
e|-----------------------------------|
B|-----------------------------------|
G|-----------------------------------|
D|-----------------------------------|
A|----------6---5--------------6---5-|
E|-5555-5-5---5----8--5555-5-5---5---|
   **** * *   *       **** * *   *
e|-----------------------------------|
B|-----------------------------------|
G|-----------------------------------|
D|-----------------------------------|
A|----------3---2--------------3---2-|
E|-2222-2-2---2----5--2222-2-2---2---|
   **** * *   *       **** * *   *
e|----------------------|
B|----------------------|
G|----------------------|
D|----------------------|
A|----------------------|
E|-3333-3-33--5555-5-55-|
   **** * **  **** * **
e|-----------------------------------|
B|-----------------------------------|
G|-----------------------------------|
D|-----------------------------------|
A|----------3---2--------------3---2-|
E|-2222-2-2---2----5--2222-2-2---2---|
   **** * *   *       **** * *   *
e|----------------------|
B|----------------------|
G|----------------------|
D|----------------------|
A|----------------------|
E|-3333-3-33--5555-5-55-|
   **** * **  **** * **


Riff 8 (Solo Rhythm)
e|----------------------------------------------------|
B|----------------------------------------------------|
G|----------------------------------------------------|
D|-4--4-6-7-6--2----9----4--4-6-7-6------5--------7---|
A|-2--2-4-5-4--0----7----2--2-4-5-4----5---5----7---7-|
E|------------------7----------------3--------5-------|
      * * *                 * * * 


Riff 9
e|--------------------------------|
B|--------------------------------|
G|--------------------------------|
D|--------------------------------|
A|--------2~----------2-3-2-0---0-|
E|-0-3--0-----0-3--0----------3---|
   *    *     *    *  * * * * *
  "Nowhere to hide..."
e|--------------------------------|
B|--------------------------------|
G|--------------------------------|
D|--------------------------------|
A|--------2~----------2-3-2-0---0-|
E|-0-3--0-----0-3--0----------3---|
   *    *     *    *  * * * * *
  "Grandma had died..."

e|---------------------|
B|---------------------|
G|---------------------|
D|-2--------1----------|
A|-3--------2----2-0---|
E|-------------------3-|
  "Alone in the night..."



Riff 10
e|--------------------------------|
B|--------------------------------|
G|--------------------------------|
D|-------------8----------------8-|
A|-------------7----------------7-|
E|-0-0-0-0-0-0----0-0-0-0-0-0-0---|
   * * * * * *    * * * * * * *
e|-------------------------------|
B|-------------------------------|
G|----------------------0----0---|
D|-------------8------4----4---4-|
A|-------------7--0-5----5-------|
E|-0-0-0-0-0-0-------------------|
   * * * * * *  
               "But I just ran away..."

Play Riff 9   "Into the woods..."
Play Riff 10

Ending:
e|-----------------|
B|-----------------|
G|-----------------|
D|---------------8-|
A|---------------7-|
E|-0-0-0-0-0-0-0---|
   * * * * * * * 
  "...time."

------------------------------------------------------

8. THEM

Tuning: Standard


Riff 1
Guitar 1 (Acoustic)
e|-5-------3------------------1-0h1p0-------------------|
B|---5-------3-----5--5--5------------3-1-0-------------|
G|-----5-------4---5--5--5------------------2-1--1-2--2-|
D|-----------------2--0--2------------------------------|
A|-0-------2-------3--2--0----------------4---2-------0-|
E|----------------------------1-------3----------0------|

e|-10---------8-------5--5--5----6-5h6p5-------------------|
B|----10--------8-----6--6--6------------8-6-5-------------|
G|-------10-------9---x--x--x------------------7-6--6-7--7-|
D|--------------------7--5--7------------------------------|
A|------------7-------8--7--5----------------4---7-------5-|
E|-10----------------------------6-------8----------5------|


Riff 2 (Acoustic)
e|-------0-----------0-----------0-----------0-----|
B|-----6---6-------6---6-------6---6-------6---6---|
G|---7-------7---7-------7---7-------7---7-------7-|
D|-0-----------0-----------8-----------8-----------|
A|-------------------------------------------------|
E|-------------------------------------------------|

e|-------0-----------0-----------------|
B|-----6---6-------6---6-------6-----5-|
G|---7-------7---7-------7---7-----6---|
D|-9-----------9-----------8-----7-----|
A|-------------------------------------|
E|-------------------------------------|

-------------------------------------------------------------

9. TWILIGHT SYMPHONY

Tuning: Standard

Intro                             x2                     
e|---------------------------------|
B|---------------------------------|
G|---------------------------------|
D|---------------------------------|
A|---------------------------------|
E|-0-000-0-000-0-0-0-000-0-000-0-0-|
   * *** * *** * * * *** * *** * *  


Riff 1
e|---------------------------------------------------|
B|---------------------------------------------------|
G|---------------------------------------------------|
D|-9----10---------9-----8---------9----10---9-------|
A|-7-----7---------7-----7---------7-----7---7-------|
E|---000---000-0-0---000---000-0-0---000---0---0-0-0-|
     ***   *** * *   ***   *** * *   ***   *   * * * 
   "Morning came and so did they..."

1st ending
e|---------|
B|---------|
G|---------|
D|-7-7-7-7-|
A|-5-5-5-5-|
E|-5-5-5-5-|
  "...from the police..."

2nd ending
Guitar 1
e|-------------------|
B|-------------------|
G|-------------------|
D|---------6-7-6-----|
A|-5-7--8---------8--|
E|-------------------|
          "...to return..."
Guitar 2
e|-------------------|
B|-------------------|
G|---------8-9-8-----|
D|-7-9-10--------10--|
A|-------------------|
E|-------------------|



Riff 2                                               x2
e|----------------------------------------------------|
B|----------------------------------------------------|
G|----------------------------------------------------|
D|----------------------------------------------------|
A|-4-----4-5-7--5-----5-4-2--4-----4-5-7--5-4-2-4-5-7-|
E|-2-222-2-3-5--3-333-3-2-0--2-222-2-3-5--3-2-0-2-3-5-|
   * *** * * *  * *** * * *  * *** * * *  * * * * * *
  "Nobody found a trace..."
e|----------------------------------------------------|
B|----------------------------------------------------|
G|----------------------------------------------------|
D|-4-----4-5-7--5-----5-4-2--4-----4-5-7--5-4-2-4-5-7-|
A|-2-222-2-3-5--3-333-3-2-0--2-222-2-3-5--3-2-0-2-3-5-|
E|----------------------------------------------------|
   * *** * * *  * *** * * *  * *** * * *  * * * * * *
  "I'd be the last..."
e|----------------------------------------------------|
B|----------------------------------------------------|
G|----------------------------------------------------|
D|----------------------------------------------------|
A|-4-----4-5-7--5-----5-4-2--4-----4-5-7--5-4-2-4-5-7-|
E|-2-222-2-3-5--3-333-3-2-0--2-222-2-3-5--3-2-0-2-3-5-|
   * *** * * *  * *** * * *  * *** * * *  * * * * * *
  "How could I ever ever explain..."


Riff 3
e|-----------------------------------------|
B|-------------3---------------------------|
G|-----------0-----------------------------|
D|-4--4----0--------4--4-------------------|
A|-2--2-------------2--2--00-22-33-22-00---|
E|-------3-------------------------------3-|
                          ** ** ** ** ** * 
       "Now I hear "Them" again..."
e|-----------------------------|
B|-------------3----------3----|
G|-----------0------------2----|
D|-4--4----0--------4--4--0--2-|
A|-2--2-------------2--2--0--0-|
E|-------3---------------------|
   "Twilight symphony..."


Play Riff 2   "Grandma was dead..."
Play Riff 3   "Now I hear "Them" again..."


Riff 4
e|-----------------------|
B|-----------------------|
G|-----------------------|
D|---------------10---10-|
A|----------------8----8-|
E|-0-000-0-0-0-0-----0---|
   * *** * * * *     *
  "Dr. Landau returned..."
e|---------------------------|
B|---------------------------|
G|---------------------------|
D|----------------12---12-10-|
A|----------------10---10--8-|
E|-0-000-0-0-0-0-----0-------|
   * *** * * * *     *
  "...and I told him the story..."
e|-----------------------|
B|-----------------------|
G|-----------------------|
D|---------------10---10-|
A|----------------8----8-|
E|-0-000-0-0-0-0-----0---|
   * *** * * * *     *
  " 'Are you mad or just insane ?'..."

1st ending
e|-----------------------|
B|-----------------------|
G|-----------------------|
D|-------5---5-3-2-------|
A|-0-2-3---3-------3-5---|
E|---------------------3-|

2nd ending
e|------------------------|
B|------------------------|
G|------------------------|
D|-------5---5-3-2------5-|
A|-0-2-3---3-------3-5--3-|
E|-------------------3----|
     "Oh no, no!"


Riff 5 (Solo Rhythm)
e|---------------------------------------|
B|---------------------------------------|
G|---------------------------------------|
D|-------------------------------------3-|
A|-5\4----------------5\4--------5--4--1-|
E|-3\2-22222222222222-3\2-222222-3--2----|
       **************     ****** *  *
e|------------------------------------|
B|------------------------------------|
G|------------------------------------|
D|-------------------------------2--4-|
A|-5\4----------------5\4--------0--2-|
E|-3\2-22222222222222-3\2-222222------|
       **************     ******
e|---------------------------------------|
B|---------------------------------------|
G|-------------------------------------5-|
D|-7\6----------------7\6--------7--6--3-|
A|-5\4-44444444444444-5\4-444444-5--4----|
E|---------------------------------------|
       **************     ****** *  *
e|------------------------------------|
B|------------------------------------|
G|------------------------------------|
D|-7\6----------------7\6--------4--2-|
A|-5\4-44444444444444-5\4-444444-2--0-|
E|------------------------------------|
       **************     ******
e|---------------------------------------|
B|---------------------------------------|
G|---------------------------------------|
D|-------------------------------------5-|
A|-7\6----------------7\6--------7--6--3-|
E|-5\4-44444444444444-5\4-444444-5--4----|
       **************     ****** *  *
e|------------------------------------|
B|------------------------------------|
G|------------------------------------|
D|-------------------------------2--4-|
A|-7\6----------------7\6--------0--2-|
E|-5\4-44444444444444-5\4-444444------|
       **************     ******


Riff 6
e|---------------------------------------------------------|
B|---------------------------------------------------------|
G|---------------------------------------------------------|
D|-12\--------------------10/12\10---------------------12\-|
A|-10\---------------------8/10\-8---------------------10\-|
E|-----0-0--0-0--0-0--0-0-----------0-0--0-0--0-0--0-0-----|
       * *  * *  * *  * *           * *  * *  * *  * * 
e|----------------------------|
B|----------------------------|
G|----------------------------|
D|----------------------------|
A|-5-5--5-5--5-7--7-7--7-9-10-|
E|-3-3--3-3--3-5--5-5--5-7--8-|
   * *  * *  * *  * *  * *


Riff 7
e|----------------------------------------------------|
B|----------------------------------------------------|
G|----------------------------------------------------|
D|--------------------12\--------------------10/12\10-|
A|--------------------10\---------------------8/10\-8-|
E|-0-0--0-0--0-0--0-0-----0-0--0-0--0-0--0-0----------|
   * *  * *  * *  * *     * *  * *  * *  * * 
e|------------------------|
B|------------------------|
G|------------------------|
D|--------------------12\-|
A|--------------------10\-|
E|-0-0--0-0--0-0--0-0-----|
   * *  * *  * *  * * 


Riff 8
e|----------------------------|
B|----------------------------|
G|----------------------------|
D|----------------------------|
A|-5-5--5-5--5-7--7-7--7-9-10-|
E|-3-3--3-3--3-5--5-5--5-7--8-|
   * *  * *  * *  * *  * *  *
  "I haven't seen my mother..."
e|------------------------------------------------------|
B|------------------------------------------------------|
G|------------------------------------------------------|
D|------------------------------------------------------|
A|-9-9--9-9--9-9--9-9--9--7--5-5--5-5--5-7--7-7--7-9-10-|
E|-7-7--7-7--7-7--7-7--7--5--3-3--3-3--3-5--5-5--5-7--8-|
   * *  * *  * *  * *  *  *  * *  * *  * *  * *  * *
                              "...since they put me away..."  

Play Riff 7

Riff 8a
e|----------------------------|
B|----------------------------|
G|----------------------------|
D|----------------------------|
A|-5-5--5-5--5-7--7-7--7-9-10-|
E|-3-3--3-3--3-5--5-5--5-7--8-|
   * *  * *  * *  * *  * *  *
  "And Dr. Landau..."
e|--------------------------------------------------------|
B|--------------------------------------------------------|
G|--------------------------------------------------------|
D|------------------------------------------------------5-|
A|-9-9--9-9--9-9--9-9--9--7--5-5--5-5--5-7--7-7--7-5-2--3-|
E|-7-7--7-7--7-7--7-7--7--5--3-3--3-3--3-5--5-5--5-3-0----|
   * *  * *  * *  * *  *  *  * *  * *  * *  * *  * *
                          "He wouldn't tell me anything..."


Riff 9 (Solo Rhythm)
e|------------------------------------------|
B|------------------------------------------|
G|------------------------------------------|
D|-4-4-----------------5--4-4----------5--5-|
A|-4-4-----------------5--4-4----------3--3-|
E|-----2-2--2-2-2--2-2--------2-2--2-2------|
       * *  * * *  * *        * *  * *
                      "Oh..."
e|--------------------------------------------|
B|--------------------------------------------|
G|--------------------------------------------|
D|-4-4-----------------5--4-4-----------------|
A|-4-4-----------------5--4-4----------7--6-5-|
E|-----2-2--2-2-2--2-2--------2-2--2-2-5--4-3-|
       * *  * * *  * *        * *  * *
                        "I'm back on the outside..."

Riff 10 (Solo Rhythm)
e|-----------------------------------|
B|-----------------------------------|
G|------------------------------5--5-|
D|-4-4------------5--4-4--------3--3-|
A|-2-2--222222222-3--2-2--22222------|
E|-----------------------------------|
        *********         ***** 
e|--------------------------------------|
B|--------------------------------------|
G|--------------------------------------|
D|-4-4------------5--4-4---------7--6-5-|
A|-2-2--222222222-3--2-2--22222--5--4-3-|
E|--------------------------------------|
        *********         ***** 

Riff 11
e|------------------------------------------------|
B|------------------------------------------------|
G|------------------------------------------------|
D|-11--7--9----14-13-12-11--14--9----9-8-7--5-6-7-|
A|--9--5--7----12-11-10--9--12--7----7-6-5--5-6-7-|
E|------------------------------------------------|
   "Time has caught up with me..."


Riff 12
e|-----------------------------------------------------|
B|-----------------------------------------------------|
G|-----------------------------------------------------|
D|-4-4-----------------5--4-4--------------------------|
A|-4-4-----------------5--4-4--------------------------|
E|-----2-2--2-2-2--2-2--------2-2--2-0h3h6-0h3h6-0h3h6-|
       * *  * * *  * *        * *  *
e|-----------------------------------|
B|-----------------------------------|
G|-----------------------------------|
D|-4-4-----------------5--4-4--------|
A|-4-4-----------------5--4-4--------|
E|-----2-2--2-2-2--2-2--------2-2--2-|
       * *  * * *  * *        * *  *
e|-------------------------------------|
B|-------------------------------------|
G|-------------------------------------|
D|-------------------------------------|
A|-------------------------------------|
E|-0h3h6-0h3h6-0h3h6-0h3h6-0h3h6-0h3h6-|

e|------------------------------------------|
B|------------------------------------------|
G|------------------------------------------|
D|-4-4-----------------5--4-4----------5--5-|
A|-4-4-----------------5--4-4----------3--3-|
E|-----2-2--2-2-2--2-2--------2-2--2-2------|
       * *  * * *  * *        * *  * *
  "Grandma, I'm coming..."
e|-----------------------------------|
B|-----------------------------------|
G|-----------------------------------|
D|-4-4-----------------5--4-4--------|
A|-4-4-----------------5--4-4--------|
E|-----2-2--2-2-2--2-2--------2-2--2-|
       * *  * * *  * *        * *  *
  "...home now..."                    x2
e|-------------------------------------|
B|-------------------------------------|
G|-------------------------------------|
D|-------------------------------------|
A|-------------------------------------|
E|-0h3h6-0h3h6-0h3h6-0h3h6-0h3h6-0h3h6-|

e|-------|
B|-------|
G|-------|
D|-------|
A|--4-4--|
E|--2-2--|
   "...home now!"


notation:
^   =  bend [ ^ = half, ^^ = whole, etc. ]
^r  =  bend and release
x   =  mute with fret-hand
*   =  mute with palm-hand
X\\ =  pick slide
h   =  hammer-on
p   =  pull-off
~   =  vibrato
t   =  tap-on
/   =  slide up
\   =  slide down
h.  =  harmonics
ah  =  artificial harmonic
(9) =  ghost note
tm  =  trem picking
tr  =  trill


comments
We did not receive enough feedback on this tab! Please rate:
print report bad tab
1 2 3 4 5
I want to post or [tab]
guest
You may want to rate the tab now too:
select rating
Please do not post tabs as comments. Select "correction" instead!