Oops, an error
Loading. Please wait.

Traverse Town Tab

ver1
ver1

Whole song

Interactive

More versions @911Tabs.com
28,309 views 63 this week
2 commentsread comments
1 2 3 4 5
accurate
x 10
Autoscroll
+/-
esc
set tempo
stop
Contributor
Hey! There's an official Ultimate Guitar app which is ideal
for learning songs when you're away from computer. Get the app
WARNING: You are trying to view
                                    content from Ultimate-Guitar.com
                                    in an unauthorized application,
                                    which is prohibited.

                                    Please use an official Ultimate
                                    Guitar Tabs application for iPhone,
                                    iPad or Android to access legitimate
                                    chords, guitar, bass, and drum tabs
                                    from Ultimate-Guitar.com database.

                                    Type "ultimate guitar tabs" in Apple
                                    App Store's or Android Market's
                                    search to find the application.
----------------------------------------------------------------------------
                            Kingdom Hearts - Traverse Town BGM 
-------------------------------------------------------------------------------
Tabbed by: don
Email: dondimanlig@yahoo.com

Tuning: standard

(MAIN FLUTE)
e|----------7--6-----6-----------------------------------------|---------|
B|--7----9--------9-----7-----------7--6--9-------7--6--7--9---|---------|  
G|-------------------------6---6h8-----------6h8---------------|--repeat-|  
D|-------------------------------------------------------------|---2x----|
A|-------------------------------------------------------------|---------|
E|-------------------------------------------------------------|---------|

immediately after the 2nd time...

e|-----9--7--12---9--7---------7-------------------------------7-----------|
B|-10-------------------10--9-----10--9--5--7--5h7--10--10--9-----10--9--7-|
G|-------------------------------------------------------------------------|
D|-------------------------------------------------------------------------|
A|-------------------------------------------------------------------------|
E|-------------------------------------------------------------------------|

repeat for the whole song

(BASS)               (PIANO)
e|-------------------|-------------------------|
B|-------------------|-------------------------|
G|-------------------|-------------------------|
D|-(with variations)-|-------------------------|
A|-------------------|---5--0--5----5--7--0----|
E|--3--0--3----5--0--|-------------------------|

| h  hammer-on
| p  pull-off

by don
============================================================================
comments
print report bad tab
2 comments total.
0 reply
birte-elise wrote on October 21 2014, 02:31 pm, edited at 02:32 pm

Im pretty sure it's supposed to be e|-----9--7--12---9--7---------7-------------------------------7-----------|B|-10-------------------10--9-----10--9--5--7--5h7--9--10--9-----10--9--7-|G|-------------------------------------------------------------------------|D|-------------------------------------------------------------------------|A|-------------------------------------------------------------------------|E|-------------------------------------------------------------------------|

Other than that it's a great tab, good job ^^

0 reply
birte-elise wrote on October 21 2014, 02:33 pm

It ****ed up and i can't edit it so here:

e|-----9--7--12---9--7---------7-------------------------------7-----------|
B|-10-------------------10--9-----10--9--5--7--5h7--9--10--9-----10--9--7-|
G|-------------------------------------------------------------------------|
D|-------------------------------------------------------------------------|
A|-------------------------------------------------------------------------|
E|-------------------------------------------------------------------------|

I want to post or [tab]
guest
You may want to rate the tab now too:
select rating
Please do not post tabs as comments. Select "correction" instead!